PrimaNota.ru - самый крупный в мире бесплатный архив песенных текстов, аккордов, табулатур и нот


Joe Perry - Mercy - таба, видео

Регистрация Запомнить меня
Войти через:  Facebook Google Twitter Vk Yandex Mail.ru

Joe Perry - Mercy - таба, видео

Печатать
Просмотров: 202
"Mercy" by Joe Perry, from his debut solo album, "Joe Perry"


Joe does all kinds of crazy stuff in this song,  so I only tabbed the first four bars,
is enough to show the main riff he varies throughout the song and the key it's in.  I
usually submit my own tabs but there are NO tabs for Joe Perry's last two albums,  and 
JUST NOT RIGHT!


Tuning is one half-step down from standard:

Eb Ab Db Gb Bb Eb

Key signature is Eb minor, actually more in the Dorian mode as is typical of Joe Perry,
is just making the minor 6th a major 6th.


 4/4
  Gtr I
|------------------------|---------------------|
|--5-5-5-5---5-(5)-5-(5)-|-5-5-5-5-5---5-(5)-5-|
|--5-5-7-7b8r7-(7)-5h=7--|---5-5-7-7b8r7-(7)-5-|
|--2---------------------|---------------------|
|------------------------|---------------------|
|------------------------|---------------------|


|-------------------------|----------------------|
|-8-5-5-5-5---5-(5)-5-(5)-|-5-5-5-5-5---5-(5)-5--|
|---5-5-7-7b8r7-(7)-5h=7--|---5-5-7-7b8r7-(7)-5--|
|-------------------------|----------------------|
|-------------------------|----------------------|
|-------------------------|----------------------|


Tabbed by Brian Bray,  bsbray@gmail.com


In the name of JOE FUCKIN' PERRY
Добавлено: 27.05.2012
Другие материалы по этой песне:
  • Аккорды и текст

Страница создана 27.05.2012
http://primanota.ru/joe-perry/mercy-chords.htm
Привет, Гость.
Предлагаем пройти революционный курс по гитаре.
Подарок от PrimaNota.Ru, забирай!