PrimaNota.ru - самый крупный в мире бесплатный архив песенных текстов, аккордов, табулатур и нот


Joe Perry - Listen To The Rock - таба, видео

Регистрация Запомнить меня
Войти через:  Facebook Google Twitter Vk Yandex Mail.ru

Joe Perry - Listen To The Rock - таба, видео

Печатать
Просмотров: 153
Key:
/ = slide
p = pull off
h = hammer on
b = bend

Intro:
------------------|
------------------|
---------1b-------|
---------2b-------|
--7--/---2b-------|
------------------|

1st Solo:
---------------------------------------------------------------|
---------------------------------------------------------------|
--10h12------10----12-12-14p12-12-------12--14----12b-14b------|
---------12------------------------h14-------------------------|
---------------------------------------------------------------|
---------------------------------------------------------------|

---------------------------------------------------------------|
---------------------------------------------------------------|
--12b-14b-12b-14b-14-12----------------------------------------|
-------------------------14-14-14--12-12--14b--14p12-----12h14-|
------------------------------------------------------14-------|
---------------------------------------------------------------|

----------------------------------------------------------------|
------------------------------------------------------10h12p10h-|
--12h14-14p12----12-14p12----12-14-14-14-14-12h14p12------------|
--------------14----------14------------------------------------|
----------------------------------------------------------------|
----------------------------------------------------------------|

---------------------------------------------------------------|
12--10h12p10h12--10h12p10h12p10h12p10h12p10h12p10-12bbb--------|
---------------------------------------------------------------|
---------------------------------------------------------------|
---------------------------------------------------------------|
---------------------------------------------------------------|
End Solo

---------------------------------------------------------------|
---------------------------------------------------------------|
----5---5---5---5-----7---7---7---7----5-5-3-7---5-5-3-7-------|
----5---5---5---5-----7---7---7---7----5-5-3-7---5-5-3-7-------|
--x-3-x-3-x-3-x-3---x-5-x-5-x-5-x-5----3-3-1-5---3-3-1-5-55p33-|
---------------------------------------------------------------|

---------------------------------------------------------------|
---------------------------------------------------------------|
--5---5---5---5-----7---7---7---7----5-5-3-7---5-5-3-7---------|
--5---5---5---5-----7---7---7---7----5-5-3-7---5-5-3-7---------|
--3-x-3-x-3-x-3---x-5-x-5-x-5-x-5----3-3-1-5---3-3-1-5-55p33---|
---------------------------------------------------------------|

----------------------------------------------------------------|
----------------------------------------------------------------|
--5---5---5---5-----7---7---7---7-----9---9---9---9----10--10---|
--5---5---5---5-----7---7---7---7-----9---9---9---9----10--10---|
--3-x-3-x-3-x-3---x-5-x-5-x-5-x-5---x-7-x-7-x-7-x-7---x-8-x-8-x-|
----------------------------------------------------------------|

---------------------------------------------------------------|
---------------------------------------------------------------|
-10-------1---5-5-3-7---------5---5---5---5-----7---7---7---7--|
-10-------2---5-5-3-7---------5---5---5---5-----7---7---7---7--|
--8-x-8-7/2---3-3-1-5--55p33--3-x-3-x-3-x-3---x-5-x-5-x-5-x-5--|
---------------------------------------------------------------|

---------------------------------------------------------------|
---------------------------------------------------------------|
--5-5-3-5--5-5-3-5---------5---5---5---5-----7---7---7---7-----|
--5-5-3-7--5-5-3-7---------5---5---5---5-----7---7---7---7-----|
--3-3-1-7--3-3-1-7--55p33--3-x-3-x-3-x-3---x-5-x-5-x-5-x-5-----|
---------------------------------------------------------------|

---------------------------------------------------------------|
---------------------------------------------------------------|
--5-5-3-7---5-5-3-7--------5---5---5---5----7---7---7---7----9-|
--5-5-3-7---5-5-3-7--------5---5---5---5----7---7---7---7----9-|
--3-3-1-5---3-3-1-5-55p33--3-x-3-x-3-x-3--x-5-x-5-x-5-x-5--x-7-|
---------------------------------------------------------------|

---------------------------------------------------------------|
---------------------------------------------------------------|
---9---9---9----10--10--10----1--------------------------------|
---9---9---9----10--10--10----2--------------------------------|
-x-7-x-7-x-7--x--8-x-8-x-8--7/2--------------------------------|
---------------------------------------------------------------|

          (1:06)
--------------------------------|
-9b9b9b9b9b9b9--9b9b9b9b9b9b9---|
--------------------------------|
--------------------------------|
--------------------------------|
--------------------------------|

2nd Solo:
---------------------------------------------------------------|
--5p333b--55b/7-8p7p6--7p555--77bp555--7p5h777--55-------------|
---------------------------------------------------765-----7p5-|
-------------------------------------------------------765-----|
---------------------------------------------------------------|
---------------------------------------------------------------|

----------------------------------------------------7p5h75h75h7-|
----------5h7p5h7p5h7p5h7p5h8p5-----5-7--5h8p5---5--------------|
--------------------------------7p5------------7----------------|
--7-5-----------------------------------------------------------|
------7---------------------------------------------------------|
----------------------------------------------------------------|

h75h75h75h75h75h7-8-5-----------7bbb---------------------------|
----------------------7p5---5h7--------------------------------|
--------------------------7------------------------------------|
---------------------------------------------------------------|
---------------------------------------------------------------|
---------------------------------------------------------------|
End Solo

For this next part, I suggest either use a vibrato technique or
lightly use your wammi bar.

---------------------------------------------------------------|
---------------------------------------------------------------|
--7-/-5-/-3-/-5-----7-5-----7-5-----7-5-----7-5----------------|
--7-/-5-/-3-/-5---7-7-5---7-7-5---7-7-5---7-7-5----------------|
--5-/-3-/-1-/-3---7-5-3---7-5-3---7-5-3---7-5-3--5-7-7-7-------|
------------------5-------5-------5-------5--------------------|

3rd Solo:
---------------------------------------------------------------|
---------------------------------------------------------------|
--------------5h77-7p5-----5h7-7p5---5h7p5h7-5h7p5h7--5h7p5h7--|
--------5h77-----------7-7---------7---------------------------|
--5h77---------------------------------------------------------|
---------------------------------------------------------------|

                    singing resumes
---------------------------:-------------------------------------|
---------------------------:--77p5-77p5-77p5-77p5-77p5-77p5-77p5-|
-7bp5-7bp5--5h77-5h77-5h77-:-------------------------------------|
---------------------------:-------------------------------------|
---------------------------:-------------------------------------|
---------------------------:-------------------------------------|

                         3:01
--------------------------:--5h7-5h7-5h7--77p5-777p5-77p5-777p5--|
-77p5-77p5-77p5-77p5-77p5-:--------------------------------------|
--------------------------:--------------------------------------|
--------------------------:--------------------------------------|
--------------------------:--------------------------------------|
--------------------------:--------------------------------------|

 3:09
--:--7-7--5-5--3-3--2-2--|
--:----------------------|
--:----------------------|
--:----------------------|
--:----------------------|
--:----------------------|

-----------------------------------------------------------------|
-----------------------------------------------------------------|
---5---5---5---5-----7---7---7---7---7-7--5-5-5--7-7-7-7---------|
---5---5---5---5-----7---7---7---7---7-7--5-5-5--7-7-7-7---------|
-x-3-x-3-x-3-x-3---x-5-x-5-x-5-x-5---5-5--3-3-3--5-5-5-5---------|
-----------------------------------------------------------------|

Lyrics:

Holy moly, dont you know your a hero?
Your a freedom fighter
Anytime ya think it just doesnt matter anyway...oh yeah
Let me talk to you, I will make you blue
I wanna make you listen, I wanna make you listen
Oh, listen to me go
People know that when I walk in the room, I am a rock n roller
Anytime ya think it just doesnt matter anyway...yeah
Let me talk to you, I will make you blue
I wanna make you listen, I wanna make you listen

I wanna listen to the rock n rollers
I wanna listen to the rock n roll
I wanna listen to the rock n rollers
I wanna listen to that rock n roll...well....oh shit

Let me talk to you, I will make you blue
I wanna make you listen, I wanna make you listen....woah
I wanna listen to the rock n rollers
I wanna listen to the rock n roll
I wanna listen to the rock n rollers....oh
I wanna listen to that rock n roll....yeah
Woah!....yeah....i wanna listen to the rock n rollers
I wanna listen to the rock n roll
I wanna listen to the rock n rollers
I wanna listen to that rock n roll.....rock n roll

____________________________________________________________________________

That's the song, hope you like it.
Comments? Corrections?
If so, please email me at parenthesis@live.ca
Добавлено: 31.03.2012
Другие материалы по этой песне:
  • Аккорды и текст

Страница создана 31.03.2012
http://primanota.ru/joe-perry/listen-to-the-rock-chords.htm
Привет, Гость.
Предлагаем пройти революционный курс по гитаре.
Подарок от PrimaNota.Ru, забирай!