PrimaNota.ru - самый крупный в мире бесплатный архив песенных текстов, аккордов, табулатур и нот


Joe Perry - Ive Got The Rock N Rolls Again - таба, видео

Регистрация Запомнить меня
Войти через:  Facebook Google Twitter Vk Yandex Mail.ru

Joe Perry - Ive Got The Rock N Rolls Again - таба, видео

Печатать
Просмотров: 108
Уроки эстрадного вокала в Санкт-Петербурге
e:---------------------------------------------------------|
b:--x--2--0--------------------2--0------------------------|
g:--x--2--0--1--x--1--x--1--x--2--0--1--x--1--x--1--7p5-2--|
d:--x--2--0--2--x--2--x--2--x--2--0--2--x--2--x--2---------|
a:--0--------2--x--2--x--2--x--------2--x--2--x--2---------|
e:---------------------------------------------------------|

-----------------------------:
--x--2--0--------------------:
--x--2--0--1--x--1--x--1--x--:
--x--2--0--2--x--2--x--2--x--:
--0--------2--x--2--x--2--x--:
-----------------------------:

Repeat this part until 1:00
:--------------------------:
:--2--0--------------------:
:--2--0--1--x--1--x--1--x--:
:--2--0--2--x--2--x--2--x--:
:--------2--x--2--x--2--x--:
:--------------------------:

1:00
Main Riff
:---------------------------------------------------------|
:---------------------------------------------------------|
:---------------------------------------------------------|
:---------------------------------------------------------|
:---------------------------------------------------------|
:--3-5--3-5--0-0-0--0-0-0---3-5--3-5--0-0-0---3-0--3-0--5-|

---------------------------------------------------------:
---------------------------------------------------------:
---------------------------------------------------------:
---------------------------------------------------------:
---------------------------------------------------------:
-5-5--5-5-5---3-0--3-0--5-5-5--5-5-5---------------------:

These are the chords used for the next verse:
:----------------:
:----------------:
:--5------7------:
:--5------7------:
:--5------7------:
:--3------5------:

2:36
:-------------------------------------------------------:
:-------------------------------------------------------:
:--7-7-7-7-7-7---7-7-7-7-7---5-5-5-5-5-5---5-5-5-5-5----:
:--7-7-7-7-7-7---7-7-7-7-7---5-5-5-5-5-5---5-5-5-5-5----:
:--5-5-5-5-5-5---5-5-5-5-5---7-7-7-7-7-7---7-7-7-7-7----:
:-------------------------------------------------------:
Добавлено: 05.07.2012
Другие материалы по этой песне:
  • Аккорды и текст

Страница создана 05.07.2012
http://primanota.ru/joe-perry/ive-got-the-rock-n-rolls-again-chords.htm
Привет, Гость.
Предлагаем пройти революционный курс по гитаре.
Подарок от PrimaNota.Ru, забирай!