PrimaNota.ru - самый крупный в мире бесплатный архив песенных текстов, аккордов, табулатур и нот


Joe Perry - East Coast West Coast - таба, видео

Регистрация Запомнить меня
Войти через:  Facebook Google Twitter Vk Yandex Mail.ru

Joe Perry - East Coast West Coast - таба, видео

Печатать
Просмотров: 160
Song: East Coast, West Coast
Artist: Joe Perry(Project)
Tabbed by: mattteen
Tuning: Standard
**Private message me on UG if you have any questions or corrections **


*There is no intro to this song, starts with 1st verse*

Song Layout:
        Just follow this map and you will know the whole song

   Verse 1
   Chorus
   Verse 2
   Chorus
   Interlude
   Verse 3
   Chorus
   Guitar solo (will try to post later on, Solo in E minor Pentatonic)
   Verse 4
   Chorus


****************************************************************************
Key:
P.M. = Palm mute
/ = slide up
Verse

E----------------------------------------------------------------------5----|
B----------------------------------------------------------------------5----|
G----------------------------------------------------------------------4----|
D--2-------------------------------------------------------------------2----|
A--2-2-2-2-2-2-2-2-2-2-2-2-2-2-2-2-2-2-2-2-2-2-2-2-------0-------------0----|
E--0-0-0-0-0-0-0-0-0-0-0-0-0-0-0-0-0-0-0-0-0-0-0-0--------------------------|
 P.M.______________________________________________

E--------------------------------------------|
B--------------------------------------------|*Do this twice for a verse
G--4/6------6----6-------4/6------6----6-----|(exept for the last verse,
D--4/6------6----6-------4/6------6----6-----| which is 4)
A--2/4------4----4-------2/4------4----4-----|
E--------------------------------------------|

****************************************************************************

Chorus - "I will be..."


E--2-----2-----2-----0-----0-----0-----2-----2-----2-----0-----0-----0----|
B--2-----2-----2-----0-----0-----0-----2-----2-----2-----0-----0-----0----|
G--4-----4-----4-----2-----2-----2-----4-----4-----4-----2-----2-----2----|
D--4-----4-----4-----2-----2-----2-----4-----4-----4-----2-----2-----2----|
A--2-----2-----2-----0-----0-----0-----2-----2-----2-----0-----0-----0----|
E--2-----2-----2-----0-----0-----0-----2-----2-----2-----0-----0-----0----|

E--2-----2-----2--2-----0-----0-----0--0----------------------------------|
B--2-----2-----2--2-----0-----0-----0--0----------------------------------|
G--4-----4-----4--4-----2-----2-----2--2----------------------------------|
D--4-----4-----4--4-----2-----2-----2--2-----------------------------2----|
A--2-----2-----2--2-----0-----0-----0--0---------------2-2-2-2-2-2-2-2----|
E--2-----2-----2--2-----0-----0-----0--0-----0-0-0-0-0-0-0-0-0-0-0-0-0----|
                                            P.M.___________________

****************************************************************************************
Interlude (some cool and strange chords)

E---4--4-----4--4----4--4-----4--4----------------------------------------|
B---0--0-----3--3----4--4-----5--5----------------------------------------|
G---4--4-----2--2----4--4-----0--0----------------------------------------|
D---2--2-----0--0----6--6-------------------------------------------------|
A---2--2-------------6--6-----3--3----------------------------------------|
E---0--0-------------4--4-------------------------------------------------|
Добавлено: 28.07.2012
Другие материалы по этой песне:
  • Аккорды и текст

Страница создана 28.07.2012
http://primanota.ru/joe-perry/east-coast-west-coast-chords.htm
Привет, Гость.
Предлагаем пройти революционный курс по гитаре.
Подарок от PrimaNota.Ru, забирай!