PrimaNota.ru - самый крупный в мире бесплатный архив песенных текстов, аккордов, табулатур и нот


Joe Mcgurk - Fire The Pain And Beauty - таба, видео

Регистрация Запомнить меня
Войти через:  Facebook Google Twitter Vk Yandex Mail.ru

Joe Mcgurk - Fire The Pain And Beauty - таба, видео

Печатать
Просмотров: 72
Title: Fire (The Pain and Beauty)
Artist: Joe McGurk
Copyright: Lion Music 2015
Tempo = 150


Legend
L - tied note
x - dead note
h - hammer on/pull off
b - bend
s - slide
~ - vibrato
g - ghost note
> - accentuated note
t - trill
M - palm mute
. - staccato
P - popping (bass)
S - slapping (bass)
+ - tapping
W - wide vibrato
< - fade in
w - whammy bar
= - tremolo picking
v - brush up
^ - brush down
V - pick stroke up
n - pick stroke down


E |----------------------------|----------------------------|----------------|
B |--10~---10~10~10~-----------|--------10~10~10~---5~-5~---|----------------|
G |----------------------------|----------------------------|--2~-5~-7~-5~---|
D |----------------------------|----------------------------|----------------|
A |----------------------------|----------------------------|----------------|
E |----------------------------|----------------------------|----------------|


----------------|----------------------------|----------------------------|
----------------|--22~---22~22~22~-----------|--------22~22~22~---17~17~--|
--5~-4~---------|----------------------------|----------------------------|
----------------|----------------------------|----------------------------|
----------------|----------------------------|----------------------------|
----------------|----------------------------|----------------------------|


----------------|----------------|
----------------|----------------|
--14~17~19~17~--|--17~16~--------|
----------------|----------------|
----------------|----------------|
----------------|----------------|


--21-22-21-22-21-22-21-22-------------------------------------------------------|
--------------------------21-22-21-22-21-22-21-22-------------------------------|
--------------------------------------------------21-22-21-22-21-22-21-22-17-19-|
--------------------------------------------------------------------------------|
--------------------------------------------------------------------------------|
--------------------------------------------------------------------------------|


--------------------|-----17~--|
--------------------|----------|
17-19-17-19-17-19---|----------|
--------------------|--19~-----|
--------------------|----------|
--------------------|----------|


-----10-------------------------------------------10----------------------------|
--------10----10----10----10----10----10----10----------10----10----10----10----|
--------------------------------------------------------------------------------|
--------------------------------------------------------------------------------|
--------------------------------------------------------------------------------|
--------------------------------------------------------------------------------|


--------------------|--12------------------------|
10----10----10------|-----10----10----10----10---|
--------------------|----------------------------|
--------------------|----------------------------|
--------------------|----------------------------|
--------------------|----------------------------|


----------------------------------------------------|
--8--8--8--8--8--8--8--8--8--8--8--8--8--8--8--8----|
----------------------------------------------------|
----------------------------------------------------|
----------------------------------------------------|
----------------------------------------------------|


--13----------------10-10---|
-----10----10----10---------|
----------------------------|
----------------------------|
----------------------------|
----------------------------|


--9-----------10----10-13-17----17----------17L-----|
-----------------10---------------------------------|
----------------------------------------------------|
----------------------------------------------------|
----------------------------------------------------|
----------------------------------------------------|


--17-------------------17-22----22----------22------|
--------------18----18------------------------------|
-----------------19---------------------------------|
----------------------------------------------------|
----------------------------------------------------|
----------------------------------------------------|


--22-20-18----------20-18-17----------20-18---------|
-----------22-20-18----------20-18-17-------17-18---|
----------------------------------------------------|
----------------------------------------------------|
----------------------------------------------------|
----------------------------------------------------|


--21-22---------------------------------------------|----|----------------|
--------21-22---------------------------------------|----|--18L---18~-----|
--------------21-22-17-19---------------------------|----|-----------17---|
--------------------------19L19L19L19L19L19L19L19---|----|----------------|
----------------------------------------------------|----|----------------|
----------------------------------------------------|----|----------------|


--20~---------20----18-17---|
----------------------------|
----------------------------|
----------------------------|
----------------------------|
----------------------------|


--------------17L---------17L---------17~------15---|
--20----------------------------------------15------|
----------------------------------------------------|
----------------------------------------------------|
----------------------------------------------------|
----------------------------------------------------|


--19-17-15----19-17-15----17-15---------------------|
-----------15----------15-------15-18-20-18-15------|
-----------------------------------------------16---|
----------------------------------------------------|
----------------------------------------------------|
----------------------------------------------------|


----------------------------------------------------|
--20-18-15------------------------------------------|
-----------16-17-16-14-12---------------------------|
--------------------------19-17-15-17-15-13-12-13---|
----------------------------------------------------|
----------------------------------------------------|


-----------------12-13-15-13-12---------------------|
--------12-13-15----------------15-13-12------------|
--12-14----------------------------------14-12-14---|
----------------------------------------------------|
----------------------------------------------------|
----------------------------------------------------|


--17-16-17------------------|--17-16-17------------------|
-----------17-18------------|-----------17-18------------|
-----------------18-19------|-----------------18-19------|
-----------------------19---|-----------------------19---|
----------------------------|----------------------------|
----------------------------|----------------------------|


--21-22-21-22-21-22-21-22-------------------------------------------------------|
--------------------------21-22-21-22-21-22-21-22-------------------------------|
--------------------------------------------------21-22-21-22-21-22-21-22-17-19-|
--------------------------------------------------------------------------------|
--------------------------------------------------------------------------------|
--------------------------------------------------------------------------------|


--------------------|-------|
--------------------|-------|
17-19-17-19-17-19---|-------|
--------------------|--19~--|
--------------------|-------|
--------------------|-------|


--5--0-----0--8--5-----5--12-8-----8--17-12----12---|
--------1-----------5-----------10----------13------|
----------------------------------------------------|
----------------------------------------------------|
----------------------------------------------------|
----------------------------------------------------|


--20-17----17-24-20----20-17-12----12-20-17----17---|
--------17----------22----------13----------17------|
----------------------------------------------------|
----------------------------------------------------|
----------------------------------------------------|
----------------------------------------------------|


--17----------------------17------------------------|
----------------------------------------------------|
-----17-17-17-17-17-17-17----17-17-17-17-17-17-17---|
----------------------------------------------------|
----------------------------------------------------|
----------------------------------------------------|


--19------------------------|
----------------------------|
-----16----16----16----16---|
----------------------------|
----------------------------|
----------------------------|


--19----------------------19------------------------|
----------------------------------------------------|
-----16-16-16-16-16-16-16----16-16-16-16-16-16-16---|
----------------------------------------------------|
----------------------------------------------------|
----------------------------------------------------|


--20------------------------|
----------------------------|
-----17----17----14-14-14---|
----------------------------|
----------------------------|
----------------------------|


--5--0-----0--8--5-----5--12-8-----8--17-12----12---|
--------1-----------5-----------10----------13------|
----------------------------------------------------|
----------------------------------------------------|
----------------------------------------------------|
----------------------------------------------------|


--20-17----17-24-20----20-17-12----12-20-17----17---|
--------17----------22----------13----------17------|
----------------------------------------------------|
----------------------------------------------------|
----------------------------------------------------|
----------------------------------------------------|


--21-22-21-22-21-22-21-22-------------------------------------------------------|
--------------------------21-22-21-22-21-22-21-22-------------------------------|
--------------------------------------------------21-22-21-22-21-22-21-22-17-19-|
--------------------------------------------------------------------------------|
--------------------------------------------------------------------------------|
--------------------------------------------------------------------------------|


--------------------|--------16-19-16------------------------------------|----|
--------------------|-----17----------17----17-17L17L17L17L17L17L17L17~--|----|
17-19-17-19-17-19---|--16----------------16------------------------------|----|
--------------------|----------------------------------------------------|----|
--------------------|----------------------------------------------------|----|
--------------------|----------------------------------------------------|----|


--------------------8--10---|
--8L----------8-------------|
----------------------------|
----------------------------|
----------------------------|
----------------------------|


--11~---------------------11-10-11-10----11-10-11---|
--------------------------------------13------------|
----------------------------------------------------|
----------------------------------------------------|
----------------------------------------------------|
----------------------------------------------------|


-----------------------------------8--11-8----------|
-----------1--4-----------------8-----------8-------|
--------0--------5-----------8-----------------8----|
--------------------5-----10------------------------|
-----6-----------------6----------------------------|
--8-------------------------------------------------|


-----------8--11-8-----------------20-23-20---------|
--------8-----------8-----------20----------20------|
-----8-----------------8-----20----------------20---|
--10----------------------22------------------------|
----------------------------------------------------|
----------------------------------------------------|


--17-12-9--12-17-12-9--12-17-12-9--12-17-12-9--12---|
----------------------------------------------------|
----------------------------------------------------|
----------------------------------------------------|
----------------------------------------------------|
----------------------------------------------------|


--21-10-9--10-21-10-9--10-21-10-9--10-21-10-9--10---|
----------------------------------------------------|
----------------------------------------------------|
----------------------------------------------------|
----------------------------------------------------|
----------------------------------------------------|


--21-22-21-22-21-22-21-22-------------------------------------------------------|
--------------------------21-22-21-22-21-22-21-22-------------------------------|
--------------------------------------------------21-22-21-22-21-22-21-22-17-19-|
--------------------------------------------------------------------------------|
--------------------------------------------------------------------------------|
--------------------------------------------------------------------------------|


--------------------|
--------------------|
17-19-17-19-17-19---|
--------------------|
--------------------|
--------------------|


--9--10-9--10-9--10-9--10-------------------------------------------------------|
--------------------------9--10-9--10-9--10-9--10-------------------------------|
--------------------------------------------------9--10-9--10-9--10-9--10-5--7--|
--------------------------------------------------------------------------------|
--------------------------------------------------------------------------------|
--------------------------------------------------------------------------------|


--------------------|
--------------------|
5--7--5--7--5--7----|
--------------------|
--------------------|
--------------------|


-----------17-20-17-------21-22-------------------9--10-------------------------|
--------17----------17----------21-22-------------------9--10-------------------|
-----17----------------17-------------21-22-17-19-------------9--10-7--9--9--10-|
--19----------------------------------------------------------------------------|
--------------------------------------------------------------------------------|
--------------------------------------------------------------------------------|


------------9--10---|----------|----------------------------|
------9--10---------|--10~10~--|--10~---10~10~10~-----------|
7--9----------------|----------|----------------------------|
--------------------|----------|----------------------------|
--------------------|----------|----------------------------|
--------------------|----------|----------------------------|


----------------------------|----------------|----------------|
--------10~10~10~---5~-5~---|----------------|----------------|
----------------------------|--2~-5~-7~-5~---|--5~-4~---------|
----------------------------|----------------|----------------|
----------------------------|----------------|----------------|
----------------------------|----------------|----------------|


----------------------------|----------------------------|----------------|
--22~---22~22~22~-----------|--------22~22~22~---17~17~--|----------------|
----------------------------|----------------------------|--14~17~19~17~--|
----------------------------|----------------------------|----------------|
----------------------------|----------------------------|----------------|
----------------------------|----------------------------|----------------|


----------------|
----------------|
--17~16~--------|
----------------|
----------------|
----------------|


--21-22-21-22-21-22-21-22-------------------------------------------------------|
--------------------------21-22-21-22-21-22-21-22-------------------------------|
--------------------------------------------------21-22-21-22-21-22-21-22-17-19-|
--------------------------------------------------------------------------------|
--------------------------------------------------------------------------------|
--------------------------------------------------------------------------------|


--------------------|-----17~--|----|----|-------|----|----|
--------------------|----------|----|----|-------|----|----|
17-19-17-19-17-19---|----------|----|----|-------|----|----|
--------------------|--19~-----|----|----|--2----|----|----|
--------------------|----------|----|----|--0----|----|----|
--------------------|----------|----|----|-------|----|----|


--------------------5h-0-----8h-5-----12h8-----8h---|
--------------------------1--------5--------10------|
-----------5h-2-------------------------------------|
--7h-2-----------2----------------------------------|
--------3-------------------------------------------|
----------------------------------------------------|


--5--0--5h-0----------------------------------------|
----------------------------------------------------|
--------------5--5----------------------------------|
--------------------7--2--7h-2----------------------|
--------------------------------3L-3~-0L-0L-0L-0~---|
----------------------------------------------------|


--------------------5h-0-----8h-5-----12h8-----8h---|--7~---|
--------------------------1--------5--------10------|-------|
-----------5h-2-------------------------------------|-------|
--7h-2-----------2----------------------------------|-------|
--------3-------------------------------------------|-------|
----------------------------------------------------|-------|


--------------------5h-0-----8h-5-----12h8-----8h---|
--------------------------1--------5--------10------|
-----------5h-2-------------------------------------|
--7h-2-----------2----------------------------------|
--------3-------------------------------------------|
----------------------------------------------------|


--5-----5h-0----------------------------------------|
-----5--------1-------------------------------------|
-----------------5h-2-------------------------------|
-----------------------2--7h-2----------------------|
--------------------------------3L-3~-0L-0L-0L-0~---|
----------------------------------------------------|


--------------------5h-0-----8h-5-----12h8-----8h---|--7~---|--8L-8~-7~-8~---|
--------------------------1--------5--------10------|-------|----------------|
-----------5h-2-------------------------------------|-------|--5L-5~-4~-5~---|
--7h-2-----------2----------------------------------|-------|----------------|
--------3-------------------------------------------|-------|----------------|
----------------------------------------------------|-------|----------------|


--10L10~8~-7~---|--0~---|--5s-0-----8s-5-----12s8-----17s12----12s8-----8----|
----------------|-------|--------1--------5--------10-------13-------10------|
--7L-7~-5~-4~---|--2~---|----------------------------------------------------|
----------------|-------|----------------------------------------------------|
----------------|-------|----------------------------------------------------|
----------------|-------|----------------------------------------------------|


--8L-8~-7~-8~---|--10L10~8~-7~---|--8~---|
----------------|----------------|-------|
--5L-5~-4~-5~---|--7L-7~-5~-4~---|--9~---|
----------------|----------------|-------|
----------------|----------------|-------|
----------------|----------------|-------|

                                                       w
--12-8-----8--8--5-----5--5--0-----0----------------|-------|----|----|----|
--------10----------5-----------1-------------------|-------|----|----|----|
--------------------------------------5--2-----2----|--2----|----|----|----|
--------------------------------------------2-------|-------|----|----|----|
----------------------------------------------------|-------|----|----|----|
----------------------------------------------------|-------|----|----|----|


----|----|----|----|----|----|----|----|----|----|----|----|----|----|----|
----|----|----|----|----|----|----|----|----|----|----|----|----|----|----|
----|----|----|----|----|----|----|----|----|----|----|----|----|----|----|
----|----|----|----|----|----|----|----|----|----|----|----|----|----|----|
----|----|----|----|----|----|----|----|----|----|----|----|----|----|----|
----|----|----|----|----|----|----|----|----|----|----|----|----|----|----|


----------------------------------------------------|
-----3--5--6L----6L----6L----6L----6~-5L-5L-5L-5~---|
--2-------------------------------------------------|
----------------------------------------------------|
----------------------------------------------------|
----------------------------------------------------|


----------------------------------------------------|
-----3--5--6L----6L----6L----6L----6~-5L-5L-5L-5~---|
--3-------------------------------------------------|
----------------------------------------------------|
----------------------------------------------------|
----------------------------------------------------|


----------------------------------------------------|-------|
-----3--6--8L----8L----8L----8L----8~-6L-6L-6L-6~---|--5~---|
--3-------------------------------------------------|-------|
----------------------------------------------------|-------|
----------------------------------------------------|-------|
----------------------------------------------------|-------|


----------------------------------------------------|
-----15-17-18L---18L---18L---18L---18~17L17L17L17~--|
--14------------------------------------------------|
----------------------------------------------------|
----------------------------------------------------|
----------------------------------------------------|


----------------------------------------------------|
-----15-17-18L---18L---18L---18L---18~17L17L17L17~--|
--15------------------------------------------------|
----------------------------------------------------|
----------------------------------------------------|
----------------------------------------------------|


----------------------------------------------------|-------|
-----15-18-20L---20L---20L---20L---20~18L18L18L18~--|--17~--|
--15------------------------------------------------|-------|
----------------------------------------------------|-------|
----------------------------------------------------|-------|
----------------------------------------------------|-------|


--21-22-19-22-17-22-15-22-19-21-17-21-15-21-14-21---|
----------------------------------------------------|
----------------------------------------------------|
----------------------------------------------------|
----------------------------------------------------|
----------------------------------------------------|


--17-19-15-19-14-19-12-19-15-17-14-17-12-17-10-17---|
----------------------------------------------------|
----------------------------------------------------|
----------------------------------------------------|
----------------------------------------------------|
----------------------------------------------------|


--------------------5h-0-----8h-5-----12h8-----8h---|
--------------------------1--------5--------10------|
-----------5h-2-------------------------------------|
--7h-2-----------2----------------------------------|
--------3-------------------------------------------|
----------------------------------------------------|


--5-----5h-0----------------------------------------|
-----5--------1-------------------------------------|
-----------------5h-2-------------------------------|
-----------------------2--7h-2----------------------|
--------------------------------3L-3~-0L-0L-0L-0~---|
----------------------------------------------------|


--------------------5h-0-----8h-5-----12h8-----8h---|--7~---|
--------------------------1--------5--------10------|-------|
-----------5h-2-------------------------------------|-------|
--7h-2-----------2----------------------------------|-------|
--------3-------------------------------------------|-------|
----------------------------------------------------|-------|


--------------------5h-0-----8h-5-----12h8-----8h---|
--------------------------1--------5--------10------|
-----------5h-2-------------------------------------|
--7h-2-----------2----------------------------------|
--------3-------------------------------------------|
----------------------------------------------------|


--5-----5h-0----------------------------------------|
-----5--------1-------------------------------------|
-----------------5h-2-------------------------------|
-----------------------2--7h-2----------------------|
--------------------------------3L-3~-0L-0L-0L-0~---|
----------------------------------------------------|


--------------------5h-0-----8h-5-----12h8-----8h---|--7~---|----|----|-------|
--------------------------1--------5--------10------|-------|----|----|-------|
-----------5h-2-------------------------------------|-------|----|----|-------|
--7h-2-----------2----------------------------------|-------|----|----|--2----|
--------3-------------------------------------------|-------|----|----|--0----|
----------------------------------------------------|-------|----|----|-------|


----|----|--5--4--5--4----------------------------------------|
----|----|--------------6--5--6--5----------------------------|
----|----|--------------------------7--6--7--6----------------|
----|----|--------------------------------------7--6--7--6----|
----|----|----------------------------------------------------|
----|----|----------------------------------------------------|


----------------------------------------------------|
--------------------------8--6--5--6--8--6--5--6----|
----------------------------------------------------|
--19s-----------------------------------------------|
----------------------------------------------------|
----------------------------------------------------|


----------------------------------------------------|
--10-8--6--8--10-8--6--8--13-10-8--10-13-10-8--10---|
----------------------------------------------------|
----------------------------------------------------|
----------------------------------------------------|
----------------------------------------------------|


----------------------------------------------------|
--15-13-10-13-15-13-10-13-17-15-13-15-17-15-13-15---|
----------------------------------------------------|
----------------------------------------------------|
----------------------------------------------------|
----------------------------------------------------|


----------------------------------------------------|
--18-17-15-17-18-17-15-17-10L10L10L10L10L10L10L10~--|
----------------------------------------------------|
----------------------------------------------------|
----------------------------------------------------|
----------------------------------------------------|


--------------------------------------------------------------18----------------|
--------------------------15----------------------18-15----------18-15----18-15-|
--------------14----------------------14----------------15-------------15-------|
--15-------------------------------------------------------15-------------------|
--------------------------------------------------------------------------------|
--------------------------------------------------------------------------------|


------18------------|--18-16-15-16-15-13-15-13-12-13-10-12-10-8--6--4----|
---------18-15------|----------------------------------------------------|
15-------------15---|----------------------------------------------------|
---15---------------|----------------------------------------------------|
--------------------|----------------------------------------------------|
--------------------|----------------------------------------------------|


--5~---|--5~---|--------------------------5--10-13-10-5--10-13-10---|
-------|-------|----------------------------------------------------|
-------|-------|----------------------------------------------------|
-------|-------|--7--12-15-12-7--12-15-12---------------------------|
-------|-------|----------------------------------------------------|
-------|-------|----------------------------------------------------|


--------------------------10-13-17-13-10-13-17-13---|
----------------------------------------------------|
--7--10-14-10-7--10-14-10---------------------------|
----------------------------------------------------|
----------------------------------------------------|
----------------------------------------------------|


--------------------------8--10-13-10-8--10-13-10---|
----------------------------------------------------|
----------------------------------------------------|
--10-12-15-12-10-12-15-12---------------------------|
----------------------------------------------------|
----------------------------------------------------|


--------------------------10-13-17-13-10-13-17-13---|
----------------------------------------------------|
--7--10-14-10-7--10-14-10---------------------------|
----------------------------------------------------|
----------------------------------------------------|
----------------------------------------------------|


--12-13-12-13-12-13-12L12L12L---12----13----12------|
----------------------------------------------------|
----------------------------------------------------|
----------------------------------------------------|
----------------------------------------------------|
----------------------------------------------------|


--10L10-8L-8--10L10-8L-8--12----------12------------|
-----------------------------15----15----15----15---|
--------------------------------14----------14------|
----------------------------------------------------|
----------------------------------------------------|
----------------------------------------------------|


----------------------------------------------------|
--------------15-14----------14-15-14-17-15-14------|
-----------14-------14----14-------------------14---|
--------14-------------14---------------------------|
--12-15---------------------------------------------|
----------------------------------------------------|


--------------9--12-9-----------9--12-17-12-9-------|
-----------10----------10----10----------------10---|
--------9-----------------9-------------------------|
-----11---------------------------------------------|
--12------------------------------------------------|
----------------------------------------------------|


----------------------------------------------------|
--------------15-14----------14-15-14-17-15-14------|
-----------14-------14----14-------------------14---|
--------14-------------14---------------------------|
--12-15---------------------------------------------|
----------------------------------------------------|


--------------9--12-9-----------9--12-17-12-9-------|
-----------10----------10----10----------------10---|
--------9-----------------9-------------------------|
-----11---------------------------------------------|
--12------------------------------------------------|
----------------------------------------------------|


--------------------20h17h14----------17h14h11----------20h17h14------------|
----------------------------------------------------------------------------|
--20h17h14-20h17h14----------20h17h14----------17h14h11----------20h17h14---|
----------------------------------------------------------------------------|
----------------------------------------------------------------------------|
----------------------------------------------------------------------------|


--------------------14h11h8-----------8h-5h-2-----------8h-5h-2-------------|
----------------------------------------------------------------------------|
--14h11h8--14h11h8-----------14h11h8-----------8h-5h-2-----------8h-5h-2----|
----------------------------------------------------------------------------|
----------------------------------------------------------------------------|
----------------------------------------------------------------------------|


--------------------23h20h17----------17h14h8-----------14h11h8-------------|
----------------------------------------------------------------------------|
--23h20h17-23h20h17----------23h20h17----------17h14h8-----------14h11h8----|
----------------------------------------------------------------------------|
----------------------------------------------------------------------------|
----------------------------------------------------------------------------|


----------------------------|----------------------------|----------------|
--10~---10~10~10~-----------|--------10~10~10~---5~-5~---|----------------|
----------------------------|----------------------------|--2~-5~-7~-5~---|
----------------------------|----------------------------|----------------|
----------------------------|----------------------------|----------------|
----------------------------|----------------------------|----------------|


----------------|----------------------------|----------------------------|
----------------|----------------------------|----------------------------|
--5~-4~---------|--2~----2~-2~-2~------------|--------2~-2~-2~------------|
----------------|----------------------------|--------------------2~-2~---|
----------------|----------------------------|----------------------------|
----------------|----------------------------|----------------------------|


----------------|----------------|----------------------------|----------------|
----------------|----------------|----------------------------|----------------|
----------------|----------------|----------------------------|----------------|
--------0~------|----------------|----------------------------|----------------|
--0~-3~----3~---|--3~-2~---------|--3~----3~-3~-3~------------|--3~-2~---------|
----------------|----------------|----------------------------|----------------|


-----15----12----15----12---|-----14----12----14----12---|
--12----12----12----12------|--12----12----12----12------|
----------------------------|----------------------------|
----------------------------|----------------------------|
----------------------------|----------------------------|
----------------------------|----------------------------|


--12----10-12-10----------10------------------------|-------|-------|
--------------------12----------12----10----12------|-------|-------|
----------------------------------------------------|--12~--|-------|
----------------------------------------------------|-------|-------|
----------------------------------------------------|-------|--7~---|
----------------------------------------------------|-------|-------|


----------------------------|----------------------------|-------|--7----|
----------------------------|--7L-7L-7L-7L-7L-7--8--7----|--5~---|-------|
--------9-------------------|----------------------------|-------|-------|
-----9-----7--7--9L-9L-9----|----------------------------|-------|-------|
--10------------------------|----------------------------|-------|-------|
----------------------------|----------------------------|-------|-------|


--7L-7--8L-8--7L-7--5L-5----|--7L-7--12L12---|--14-12---|
----------------------------|----------------|----------|
----------------------------|----------------|----------|
----------------------------|----------------|----------|
----------------------------|----------------|----------|
----------------------------|----------------|----------|


--10-12L12L12L12L12L12L12L12L12L12L12L12L12L12L12---|
----------------------------------------------------|
----------------------------------------------------|
----------------------------------------------------|
----------------------------------------------------|
----------------------------------------------------|


-----12---------------------|
--15----15-12---------------|
--------------14-12---------|
--------------------14-12---|
----------------------------|
----------------------------|


-----------12-------------------12-14-15-14-12------|--7~---|
--------12----12----------12-15----------------15---|-------|
-----12----------12----12---------------------------|-------|
--14----------------14------------------------------|-------|
----------------------------------------------------|-------|
----------------------------------------------------|-------|


----------------------------------------------------|
--12-10-12-10-12-10-12-10-12-8--12-8--12-8--12-8----|
----------------------------------------------------|
----------------------------------------------------|
----------------------------------------------------|
----------------------------------------------------|


----------------------------------------------------|
--12-7--12-7--12-7--12-7--12-5--12-5--12-5--12-5----|
----------------------------------------------------|
----------------------------------------------------|
----------------------------------------------------|
----------------------------------------------------|


--19-17-19-17-19-17-19-17-19----19----19----19------|
-----------------------------20----20----20----20---|
----------------------------------------------------|
----------------------------------------------------|
----------------------------------------------------|
----------------------------------------------------|


--19----19----19----19----19----19----19----19------|--14L--|--14~--|--19L--|
-----19----19----19----19----17----17----17----17---|-------|-------|-------|
----------------------------------------------------|-------|-------|-------|
----------------------------------------------------|-------|-------|-------|
----------------------------------------------------|-------|-------|-------|
----------------------------------------------------|-------|-------|-------|


--19---|--14---|--14-15-14-12---|--10L10---|--10-12-10-9----|--7----|-------|
-------|-------|----------------|----------|----------------|-------|--7----|
-------|-------|----------------|----------|----------------|-------|-------|
-------|-------|----------------|----------|----------------|-------|-------|
-------|-------|----------------|----------|----------------|-------|-------|
-------|-------|----------------|----------|----------------|-------|-------|


--7--9--10-9----|--7----||
----------------|-------||
----------------|-------||
----------------|-------||
----------------|-------||
----------------|-------||
Добавлено: 24.11.2015
Вам также может быть интересно:
Другие материалы по этой песне:
  • Аккорды и текст

Страница создана 24.11.2015
http://primanota.ru/joe-mcgurk/fire-pain-and-beauty-chords.htm
Привет, Гость.
Предлагаем пройти революционный курс по гитаре.
Подарок от PrimaNota.Ru, забирай!