PrimaNota.ru - самый крупный в мире бесплатный архив песенных текстов, аккордов, табулатур и нот


Joe Mcgurk - Earth The Aging Wisdom - таба

Регистрация Запомнить меня
Войти через:  Facebook Google Twitter Vk Yandex Mail.ru

Joe Mcgurk - Earth The Aging Wisdom - таба

Печатать
Просмотров: 65
Title: Earth
Artist: Joe McGurk
Album: Elements
Tempo = 140
Copyright Lion Music 2015

Legend
L - tied note
x - dead note
h - hammer on/pull off
b - bend
s - slide
~ - vibrato
g - ghost note
> - accentuated note
t - trill
M - palm mute
. - staccato
P - popping (bass)
S - slapping (bass)
+ - tapping
W - wide vibrato
< - fade in
w - whammy bar
= - tremolo picking
v - brush up
^ - brush down
V - pick stroke up
n - pick stroke down


E |--12h13-10h13-10h0--7h-0--8h-0--5h-0--7h-0--8h-0----|
B |----------------------------------------------------|
G |----------------------------------------------------|
D |----------------------------------------------------|
A |----------------------------------------------------|
E |----------------------------------------------------|


--5h-0--4h-0--5h-0--4h-0--12h8-----------8h-12~8~---|
--------------------------------10----10------------|
-----------------------------------9----------------|
----------------------------------------------------|
----------------------------------------------------|
----------------------------------------------------|


--12h13-10h13-10h0--7h-0--8h-0--5h-0--7h-0--8h-0----|
----------------------------------------------------|
----------------------------------------------------|
----------------------------------------------------|
----------------------------------------------------|
----------------------------------------------------|


--12-8-----------8--12-8--13-10----------10-13-10---|
--------10----10----------------10----10------------|
-----------9-----------------------10---------------|
----------------------------------------------------|
----------------------------------------------------|
----------------------------------------------------|


--12h13-10h13-10h0--7h-0--8h-0--5h-0--7h-0--8h-0----|
----------------------------------------------------|
----------------------------------------------------|
----------------------------------------------------|
----------------------------------------------------|
----------------------------------------------------|


--5h-0--4h-0--5h-0--4h-0--12h8-----------8h-12~8~---|
--------------------------------10----10------------|
-----------------------------------9----------------|
----------------------------------------------------|
----------------------------------------------------|
----------------------------------------------------|


--12h13-10h13-10h0--7h-0--8h-0--5h-0--7h-0--8h-0----|
----------------------------------------------------|
----------------------------------------------------|
----------------------------------------------------|
----------------------------------------------------|
----------------------------------------------------|


--12-8-----------8--12-8--13-10----------10-13-10---|
--------10----10----------------10----10------------|
-----------9-----------------------10---------------|
----------------------------------------------------|
----------------------------------------------------|
----------------------------------------------------|


--17-13----------13-17-13-18-15----------15-18-15---|
--------15----15----------------15----15------------|
-----------14----------------------15---------------|
----------------------------------------------------|
----------------------------------------------------|
----------------------------------------------------|


--12h13-10h13-10h0--7h-0--8h-0--5h-0--7h-0--8h-0----|
----------------------------------------------------|
----------------------------------------------------|
----------------------------------------------------|
----------------------------------------------------|
----------------------------------------------------|


--12h13-10h13-10h0--7h-0--8h-0--5h-0--7h-0--8h-0----|-------|-------|-------|
----------------------------------------------------|-------|-------|-------|
----------------------------------------------------|-------|-------|-------|
----------------------------------------------------|-------|-------|-------|
----------------------------------------------------|-------|-------|-------|
----------------------------------------------------|-------|-------|-------|

          W
-------|--19s---19-17s--|
-------|----------------|
-------|----------------|
-------|----------------|
-------|----------------|
-------|----------------|

  W
--20----------------------------------------------19h17h15----------------------|
-----------------------------------------------------------19h17h15-13h12h10-8h-|
--------------------------------------------------------------------------------|
--------------------------------------------------------------------------------|
--------------------------------------------------------------------------------|
--------------------------------------------------------------------------------|

                                        W
--------------------|--5b----7-------|-------|----------------------------|
7h-5--3h-2h-0-------|-----------3----|--5----|----------------------------|
---------------3----|----------------|-------|----------------------------|
--------------------|----------------|-------|-----------------------9----|
--------------------|----------------|-------|--------------------7-------|
--------------------|----------------|-------|--0M-0M---------------------|


----------------------------------------------------|
----------------------------------------------------|
----------------------------------------------------|
----------------------------------------------------|
--------------------------------------0h-5h-7-------|
--0M----0M-------------------------------------0----|


----------------------------|
----------------------------|
----------------------------|
-----------------------9----|
--------------------7-------|
--0M-0M---------------------|


----------------------------------------------------|
----------------------------------------------------|
----------------------------------------------------|
----------------------------------------------------|
----------------------------------------------------|
--7M-7M-7M-7M-5M-5M-5M-5M-3M-3M-3M-3M-2M-2M-2M-2M---|


--------------------------------------------------------------------------------|
--------------------------------------------------------------------------------|
--------------------------------------------------------------------------------|
--------------------------------------------------------------------------------|
--------------------------------------------------------------------------0h-5h-|
--0M----------0M----------------------------------------------------------------|

                                         W
--------------------|----------------------------|
--------------------|----------------------------|
--------------------|--------------------9L-9----|
--------------------|----------------------------|
7h-5----------------|--------------------7L-7----|
------0h-5h-7h-5----|--0M-0M---------------------|


--------------------------------------------------------------------------------|
--------------------------------------------------------------------------------|
--------------------------------------------------------------------------------|
--------------------------------------------------------------------------------|
--------------------------------------------------------------------------0h-5h-|
--0M----------0M----------------------------------------------------------------|


--------------------|----------------------------------------------------|
--------------------|----------------------------------------------------|
--------------------|----------------------------------------------------|
--------------------|----------------------------------------------------|
7h-5----------------|----------------------------------------------------|
------0h-5h-7h-5----|--7M-7M-7M-7M-5M-5M-5M-5M-3M-3M-3M-3M-2M-2M-2M-2M---|

                                                  w
--0--5--7--5--0--0--3--5--3--0--5--0--2--3--2-----12L12L12L12L12L12L12L12L12L12L-|
-----------------------------------------------3---------------------------------|
---------------------------------------------------------------------------------|
---------------------------------------------------------------------------------|
---------------------------------------------------------------------------------|
---------------------------------------------------------------------------------|


12L12L12L12L12L12---|
--------------------|
--------------------|
--------------------|
--------------------|
--------------------|


--12-7--5--0--12-7--5--0--12-5--3--0--12-5--3--7--5--0--12-7--5--0--12-5--3--0--|
--------------------------------------------------------------------------------|
--------------------------------------------------------------------------------|
--------------------------------------------------------------------------------|
--------------------------------------------------------------------------------|
--------------------------------------------------------------------------------|


12-5--3--7--5--0----|-----------10-13----------14s10---------------------|
--------------------|--------10-------10-------------12----12------------|
--------------------|-----10-------------10-------------11----11---------|
--------------------|--12-------------------12-------------------12------|
--------------------|-----------------------------------------------14---|
--------------------|----------------------------------------------------|


--------------------------0--5--7--0--3--5--0--2----|
--------17-20-------19-22---------------------------|
-----17----------19---------------------------------|
--17----------19------------------------------------|
----------------------------------------------------|
----------------------------------------------------|


-----------3h-5h-7--5h-7h-8--7h-8h-10-8h-10h12-13---|
--3h-5h-6-------------------------------------------|
----------------------------------------------------|
----------------------------------------------------|
----------------------------------------------------|
----------------------------------------------------|


--13b12-10------------------|
-----------10-12-13-12L12---|
----------------------------|
----------------------------|
----------------------------|
----------------------------|

                                                       w        w       W
--17h15-13h12-19h17-15h13---------------------------|--24L---24-0----|--12---|
----------------------------------------------------|----------------|-------|
----------------------------------------------------|----------------|-------|
--------------------------17h19---------------------|----------------|-------|
--------------------------------17h19---------------|----------------|-------|
--------------------------------------17h19-12h15---|----------------|-------|

                                                                          w
--14h15-14h12-------------------------------------------------------------------|
--------------13h12h10----------------------------------------------------------|
-----------------------10h9h-7--------------------------------------------------|
--------------------------------9h-7h-5-----------------------------------------|
-----------------------------------------5h-7-----------------------------------|
-----------------------------------------------5h-7--0h-3--0h-5--0h-3--5h-0L-0L-|

                                           w  w  w  w
--------------------|-------|--7h-8t-7h-5--7L-7L-7L-7----|
--------------------|-------|----------------------------|
--------------------|-------|----------------------------|
--------------------|-------|----------------------------|
--------------------|-------|----------------------------|
0L-0L-0L-0L-0L-0----|--0----|----------------------------|

                 W
--5h-3t-2h-3--2-------------|
-----------------5L-5L-5----|
----------------------------|
----------------------------|
----------------------------|
----------------------------|


-----------5h-7h-8--10h12h13-12h15h13-17h15h13-12h10h12-8h-10h7--8h-5h-7--3h-5h-|
--5h-7h-8-----------------------------------------------------------------------|
--------------------------------------------------------------------------------|
--------------------------------------------------------------------------------|
--------------------------------------------------------------------------------|
--------------------------------------------------------------------------------|


2--3h-2h-0----------|--------------------------7h----8t----7h----5-------|
------------3h-5----|--------17-20-------19-22---------------------------|
--------------------|-----17----------19---------------------------------|
--------------------|--17----------19------------------------------------|
--------------------|----------------------------------------------------|
--------------------|----------------------------------------------------|


--14h15-14h12-------------------------------------7h----------8t----------7h----|
--------------13h12h10----------------------------------------------------------|
-----------------------10h9h-7--------------------------------------------------|
--------------------------------9h-7h-5-----------------------------------------|
-----------------------------------------5h-7-----------------------------------|
-----------------------------------------------5h-------------------------------|


------5-------------|
--------------------|
--------------------|
--------------------|
--------------------|
--------------------|


--14h15-14h12-------------------------------------7h----------8t----------7h----|
--------------13h12h10----------------------------------------------------------|
-----------------------10h9h-7--------------------------------------------------|
--------------------------------9h-7h-5-----------------------------------------|
-----------------------------------------5h-7-----------------------------------|
-----------------------------------------------5h-------------------------------|


------5-------------|--17h15-13h12-19h17-15h13---------------------------|
--------------------|----------------------------------------------------|
--------------------|----------------------------------------------------|
--------------------|--------------------------17h19---------------------|
--------------------|--------------------------------17h19---------------|
--------------------|--------------------------------------17h19-12h15---|


--7-----------5h-3t-2h-3----|
----------------------------|
----------------------------|
----------------------------|
----------------------------|
----------------------------|


--14h15-14h12-------------------------------------7h----------8t----------7h----|
--------------13h12h10----------------------------------------------------------|
-----------------------10h9h-7--------------------------------------------------|
--------------------------------9h-7h-5-----------------------------------------|
-----------------------------------------5h-7-----------------------------------|
-----------------------------------------------5h-------------------------------|


------5-------------|
--------------------|
--------------------|
--------------------|
--------------------|
--------------------|


--14h15-14h12-------------------------------------7h----------8t----------7h----|
--------------13h12h10----------------------------------------------------------|
-----------------------10h9h-7--------------------------------------------------|
--------------------------------9h-7h-5-----------------------------------------|
-----------------------------------------5h-7-----------------------------------|
-----------------------------------------------5h-------------------------------|


------5-------------|--7-----------5h-3t-2h-3----|
--------------------|----------------------------|
--------------------|----------------------------|
--------------------|----------------------------|
--------------------|----------------------------|
--------------------|----------------------------|


--14-15-2--3--2--3----------------------------------|
----------------------------------------------------|
-----------------------0-----0-----------------0----|
--------------------4-----4-----------------4-------|
----------------------------------------------------|
--------------------------------2--3--2--3----------|


----------------------------|----------|
----------------------------|----------|
----------------------------|----------|
----------------------------|----------|
--------------7-----9--10---|--12L12~--|
--7-------------------------|----------|


--17h15-13h12-19h17-15h13---------------------------|
----------------------------------------------------|
----------------------------------------------------|
--------------------------17h19---------------------|
--------------------------------17h19---------------|
--------------------------------------17h19-12h15---|


----------------------------|----------------------------|
----------------------------|----------------------------|
----------------------------|----------------------------|
----------------------------|----------------------------|
--------------19----21-22---|--24~22~17L------17~--------|
--19------------------------|----------------------------|


--17h15-13h12-19h17-15h13---------------------------|-------|
----------------------------------------------------|--17b--|
----------------------------------------------------|-------|
--------------------------17h19---------------------|-------|
--------------------------------17h19---------------|-------|
--------------------------------------17h19-12h15---|-------|


-----------------------12---|--7L-7L-7--7L-7--8--7--5----|
--17L---17L---17L---17------|----------------------------|
----------------------------|----------------------------|
----------------------------|----------------------------|
----------------------------|----------------------------|
----------------------------|----------------------------|


--7h-8t-7h-5--7h-8t-7h-5----|
----------------------------|
----------------------------|
----------------------------|
----------------------------|
----------------------------|


--15-14-15-12-15-14-15-12-15-14-15-12-15-14-15-12---|
--5L-5L-5L-5L-5L-5L-5L-5L-5L-5L-5L-5L-5L-5L-5L-5----|
----------------------------------------------------|
----------------------------------------------------|
----------------------------------------------------|
----------------------------------------------------|


--15-14-15-12-15-14-15-12-15-14-15-12-15-14-15-12---|
--7L-7L-7L-7L-7L-7L-7L-7L-7L-7L-7L-7L-7L-7L-7L-7----|
----------------------------------------------------|
----------------------------------------------------|
----------------------------------------------------|
----------------------------------------------------|


--15-14-15-12-15-14-15-12-15-14-15-12-15-14-15-12---|
--10L10L10L10L10L10L10L10L10L10L10L10-12L12L12L12---|
----------------------------------------------------|
----------------------------------------------------|
----------------------------------------------------|
----------------------------------------------------|


--12h13-10h13-10h0--7h-0--8h-0--5h-0--7h-0--8h-0----|
----------------------------------------------------|
----------------------------------------------------|
----------------------------------------------------|
----------------------------------------------------|
----------------------------------------------------|

                                      W                                   W
--------------12s---------------------------------------------------3h-7--7L----|
-----------12----12----------------------------------------------5--------------|
-----9--12----------12----------------------------------------4s----------------|
--9--------------------14-------------------------------------------------------|
--------------------------------------14L---------14----------------------14L---|
--------------------------12----------------------------------------------------|


------7-------------|
--------------------|
--------------------|
--------------------|
------14------------|
--------------------|

                                      W                                   W
--------------10s---------------------------------------------------2h-5--2L----|
-----------10----10----------------------------------------------3--------------|
-----7--11----------11----------------------------------------2s----------------|
--7--------------------12-------------------------------------------------------|
--------------------------------------12L---------12----------------------------|
--------------------------10----------------------------------------------------|


------2-------------|--0h-2h-0-------|
--------------------|-----------3----|
--------------------|----------------|
--------------------|----------------|
--------------------|----------------|
--------------------|----------------|

  W  W  W     W  W  W  W  W  W        W  W  W  W
----------------------------------------------------|
--0L-0L-0L----0L-0L-0L-0L-0L-0L-------0L-0L-0L-0----|
----------------------------------------------------|
----------------------------------------------------|
----------------------------------------------------|
----------------------------------------------------|

                                      W                                   W
--------------12s---------------------------------------------------3h-7--7L----|
-----------12----12----------------------------------------------5--------------|
-----9--12----------12----------------------------------------4s----------------|
--9--------------------14-------------------------------------------------------|
--------------------------------------14L---------14----------------------14L---|
--------------------------12----------------------------------------------------|


------7-------------|
--------------------|
--------------------|
--------------------|
------14------------|
--------------------|

                                      W                                   W
--------------10s---------------------------------------------------2h-5--2L----|
-----------10----10----------------------------------------------3--------------|
-----7--11----------11----------------------------------------2s----------------|
--7--------------------12-------------------------------------------------------|
--------------------------------------12L---------12----------------------------|
--------------------------10----------------------------------------------------|


------2-------------|--14h12h14-17---|
--------------------|----------------|
--------------------|----------------|
--------------------|----------------|
--------------------|----------------|
--------------------|----------------|

  W  W  W     W  W  W  W  W  W        W  W  W  W
--19L19L19L---19L19L19L19L19L19L------19L19L19L19---|
----------------------------------------------------|
----------------------------------------------------|
----------------------------------------------------|
----------------------------------------------------|
----------------------------------------------------|


--14h15-14h12-10h12-10h9--10------------------------|
-----------------------------12---------------------|
--------------------------------11------------------|
-----------------------------------12---------------|
--------------------------------------14h16-14h12---|
----------------------------------------------------|

                                      W                                   W
--------5h-8--12s---------------------------------------------------------5L----|
-----5-----------10-------------------------------------------------------------|
--5s----------------9-----------------------------------------------------------|
-----------------------10-------------------------------------------------------|
--------------------------------------7L----------7L----------7L----------7L----|
--------------------------5-----------------------------------------------------|


------5-------------|--3h----5h----3-----2h----3--2h-0-------------------|
--------------------|-----------------------------------3h-1h-0----------|
--------------------|--------------------------------------------3h-2----|
--------------------|----------------------------------------------------|
------7-------------|----------------------------------------------------|
--------------------|----------------------------------------------------|

                                               W       w
--------------------2h-5-----2--------5h-9h-14-14---|--21---|
--------2--------2--------2-------------------------|-------|
-----2--------2-------------------------------------|-------|
--4-------------------------------------------------|-------|
----------------------------------------------------|-------|
----------------------------------------------------|-------|

                               w
--19s---17s---19h17-12h14---|--10---|
----------------------------|-------|
----------------------------|-------|
----------------------------|-------|
----------------------------|-------|
----------------------------|-------|


---------------------------------------------------------------|
---------------------------------------------------------------|
---------------------------------------------------------------|
---------------------------------------------------------------|
--------------------------------------------0h-2---------------|
--2>-2M-2M----2M-2>-2M-2M-2M-2M-------2>-2M-----------|


--------3h-7--5h-7--3h-7--------2h-5--3h-5--2h-5----|
-----5-----------------------3----------------------|
--4s----------------------2s------------------------|
----------------------------------------------------|
----------------------------------------------------|
----------------------------------------------------|


--19L---------19----19-19---|--19-19----19----19L---19---|
--12----------------12-12---|--12-12----12----12---------|
----------------------------|----------------------------|
----------------------------|----------------------------|
----------------------------|----------------------------|
----------------------------|----------------------------|


--19-17-19-17-19-15-19-15-19-14-19-14-19-15-19-15-19-12-19-12-19-14-19-14-19-10-|
--------------------------------------------------------------------------------|
--------------------------------------------------------------------------------|
--------------------------------------------------------------------------------|
--------------------------------------------------------------------------------|
--------------------------------------------------------------------------------|


19-10-19-12-19-12---|
--------------------|
--------------------|
--------------------|
--------------------|
--------------------|


--19-8--19-8--19-10-19-10-19-7--19-7--19-8--19-8-----------------12-13-15-13-12-|
--------------------------------------------------------12-13-15----------------|
--------------------------------------------------12-14-------------------------|
--------------------------------------------------------------------------------|
--------------------------------------------------------------------------------|
--------------------------------------------------------------------------------|

                                   w  w  w  w                      W
--------------------|--7h-8--7h-5--7L-7L-7L-7----|--5h-3--2h-3--2-------------|
15-13-12------------|----------------------------|-----------------5L-5L-5----|
---------14L---14---|----------------------------|----------------------------|
--------------------|----------------------------|----------------------------|
--------------------|----------------------------|----------------------------|
--------------------|----------------------------|----------------------------|


-----------5h-7h-8--10h12h13-12h15h13-17h15h13-12h10h12-8h-10h7--8h-5h-7--3h-5h-|
--5h-7h-8-----------------------------------------------------------------------|
--------------------------------------------------------------------------------|
--------------------------------------------------------------------------------|
--------------------------------------------------------------------------------|
--------------------------------------------------------------------------------|

                                               w  w  w  w  w  w  w  w
2--3h-2h-0----------|----------------------------------------------------|
------------3h-5----|--------17-20-------19-22-15L15L15L15L15L15L15L15---|
--------------------|-----17----------19---------------------------------|
--------------------|--17----------19------------------------------------|
--------------------|----------------------------------------------------|
--------------------|----------------------------------------------------|


--------------------------12-15-15-12---------------|
----------------------------------------------------|
--------------9--12-12-9--------------9--12-12-9----|
----------------------------------------------------|
--7--10-10-7----------------------------------------|
----------------------------------------------------|


--------------------------12-15-15-12---------------|
----------------------------------------------------|
--------------9--12-12-9--------------9--12-12-9----|
----------------------------------------------------|
--7--10-10-7----------------------------------------|
----------------------------------------------------|


--------------------------12-15-15-12---------------|
----------------------------------------------------|
--------------9--12-12-9--------------9--12-12-9----|
----------------------------------------------------|
--7--10-10-7----------------------------------------|
----------------------------------------------------|


----------------------------------------------------|
----------------------------------------------------|
----------------------------------------------------|
----------------------------------------------------|
----------------------------------------------------|
--7M-7M-7M-7M-5M-5M-5M-5M-3M-3M-3M-3M-2M-2M-2M-2M---|


--------------------------12-15-15-12---------------|
----------------------------------------------------|
--------------9--12-12-9--------------9--12-12-9----|
----------------------------------------------------|
--7--10-10-7----------------------------------------|
----------------------------------------------------|


--------------------------12-15-15-12---------------|
----------------------------------------------------|
--------------9--12-12-9--------------9--12-12-9----|
----------------------------------------------------|
--7--10-10-7----------------------------------------|
----------------------------------------------------|


--------------------------12-15-15-12---------------|
----------------------------------------------------|
--------------9--12-12-9--------------9--12-12-9----|
----------------------------------------------------|
--7--10-10-7----------------------------------------|
----------------------------------------------------|


----------------------------------------------------|
----------------------------------------------------|
----------------------------------------------------|
----------------------------------------------------|
----------------------------------------------------|
--7M-7M-7M-7M-5M-5M-5M-5M-3M-3M-3M-3M-2M-2M-2M-2M---|

                                      W                                   W
--------------12s---------------------------------------------------3h-7--7L----|
-----------12----12----------------------------------------------5--------------|
-----9--12----------12----------------------------------------4s----------------|
--9--------------------14-------------------------------------------------------|
--------------------------------------14L---------14----------------------14L---|
--------------------------12----------------------------------------------------|


------7-------------|
--------------------|
--------------------|
--------------------|
------14------------|
--------------------|

                                      W                                   W
--------------10s---------------------------------------------------2h-5--2L----|
-----------10----10----------------------------------------------3--------------|
-----7--11----------11----------------------------------------2s----------------|
--7--------------------12-------------------------------------------------------|
--------------------------------------12L---------12----------------------------|
--------------------------10----------------------------------------------------|


------2-------------|--3--2--0--2--3--2--0--2--15-14-12-14-15-14-12-14---|
--------------------|----------------------------------------------------|
--------------------|----------------------------------------------------|
--------------------|----------------------------------------------------|
--------------------|----------------------------------------------------|
--------------------|----------------------------------------------------|


--7-----------5h-3t-2h-3----|
----------------------------|
----------------------------|
----------------------------|
----------------------------|
----------------------------|

                                      W                                   W
--------------12s---------------------------------------------------3h-7--7L----|
-----------12----12----------------------------------------------5--------------|
-----9--12----------12----------------------------------------4s----------------|
--9--------------------14-------------------------------------------------------|
--------------------------------------14L---------14----------------------14L---|
--------------------------12----------------------------------------------------|


------7-------------|
--------------------|
--------------------|
--------------------|
------14------------|
--------------------|

                                      W                                   W
--------------10s---------------------------------------------------2h-5--2L----|
-----------10----10----------------------------------------------3--------------|
-----7--11----------11----------------------------------------2s----------------|
--7--------------------12-------------------------------------------------------|
--------------------------------------12L---------12----------------------------|
--------------------------10----------------------------------------------------|


------2-------------|--3--2--0--2--3--2--0--2--15-14-12-14-15-14-12-14---|
--------------------|----------------------------------------------------|
--------------------|----------------------------------------------------|
--------------------|----------------------------------------------------|
--------------------|----------------------------------------------------|
--------------------|----------------------------------------------------|


--15-14-12-14-15-14-12-14-15-14-12-14-15-14-12-14---|
----------------------------------------------------|
----------------------------------------------------|
----------------------------------------------------|
----------------------------------------------------|
----------------------------------------------------|


--17h15-13h12-19h17-15h13---------------------------|--21----21-21---|
----------------------------------------------------|----------------|
----------------------------------------------------|----------------|
--------------------------17h19---------------------|----------------|
--------------------------------17h19---------------|----------------|
--------------------------------------17h19-12h15---|----------------|


--3h----5h----3-----2h----3--2h-0-------------------|
-----------------------------------3h-1h-0----------|
--------------------------------------------3h-2----|
----------------------------------------------------|
----------------------------------------------------|
----------------------------------------------------|

                                               W       w
--------------------2h-5-----2--------5h-9h-14-14---|--21---|
--------2--------2--------2-------------------------|-------|
-----2--------2-------------------------------------|-------|
--4-------------------------------------------------|-------|
----------------------------------------------------|-------|
----------------------------------------------------|-------|

                               w
--19s---17s---19h17-12h14---|--10---|
----------------------------|-------|
----------------------------|-------|
----------------------------|-------|
----------------------------|-------|
----------------------------|-------|

                                                       W
----------------------------------------------------|--19s---19-17s-------------|
----------------------------------------------------|---------------------------|
----------------------------------------------------|---------------------------|
----------------------------------------------------|---------------------------|
--------------------------------------------0h-2----|---------------------------|
--2>-2M-2M----2M-2>-2M-2M-2M-2M-------2>-2M---------|------------------|

  W
--20----------------------------------------------19h17h15----------------------|
-----------------------------------------------------------19h17h15-13h12h10-8h-|
--------------------------------------------------------------------------------|
--------------------------------------------------------------------------------|
--------------------------------------------------------------------------------|
--------------------------------------------------------------------------------|

                                        W
--------------------|--5b----7-------|-------|----------------|----------------|
7h-5--3h-2h-0-------|-----------3----|--5----|--6s----5h-3----|--0-----0--1----|
---------------3----|----------------|-------|----------------|-----2----------|
--------------------|----------------|-------|----------------|----------------|
--------------------|----------------|-------|----------------|----------------|
--------------------|----------------|-------|----------------|----------------|

                                                       W
-----------3h-5h-7--5h-7h-8--7h-8h-10-8h-10h12-13---|--12---|
--3h-5h-6-------------------------------------------|-------|
----------------------------------------------------|-------|
----------------------------------------------------|-------|
----------------------------------------------------|-------|
----------------------------------------------------|-------|


--12h13-10h13-10h0--7h-0--8h-0--5h-0--7h-0--8h-0----|
----------------------------------------------------|
----------------------------------------------------|
----------------------------------------------------|
----------------------------------------------------|
----------------------------------------------------|


--------------------------------------7-----7--10---|
--------------------3--0--3--7--3--7-----7----------|
----------------------------------------------------|
--------4--0--4--9----------------------------------|
--2--5----------------------------------------------|
----------------------------------------------------|


--14-10-------15-10-------14-10-------15-10---------|
--------12L12-------12L12-------12L12-------12L12---|
----------------------------------------------------|
----------------------------------------------------|
----------------------------------------------------|
----------------------------------------------------|


--------------------------------------7-----7--10---|--19-17-20-19---|
--------------------3--0--3--7--3--7-----7----------|----------------|
----------------------------------------------------|----------------|
--------4--0--4--9----------------------------------|----------------|
--2--5----------------------------------------------|----------------|
----------------------------------------------------|----------------|


--19L19-15-17---|--19----19----19----17-15---|--17L17L17L17---|--17-15-14-15---|
----------------|----------------------------|----------------|----------------|
----------------|----------------------------|----------------|----------------|
----------------|----------------------------|----------------|----------------|
----------------|----------------------------|----------------|----------------|
----------------|----------------------------|----------------|----------------|

                                                                          w
--------3--7--5--7--3--7--2--3--5--0--2--3--2-----------3--7--5--7--3--7--12L12L-|
-----5-----------------------------------------3-----5---------------------------|
--4-----------------------------------------------4------------------------------|
---------------------------------------------------------------------------------|
---------------------------------------------------------------------------------|
---------------------------------------------------------------------------------|

               w
12L12L12L12L12L12---|
--------------------|
--------------------|
--------------------|
--------------------|
--------------------|

                                      W                                   W
--------------12s---------------------------------------------------3h-7--7L----|
-----------12----12----------------------------------------------5--------------|
-----9--12----------12----------------------------------------4s----------------|
--9--------------------14-------------------------------------------------------|
--------------------------------------14L---------14----------------------14L---|
--------------------------12----------------------------------------------------|


------7-------------|
--------------------|
--------------------|
--------------------|
------14------------|
--------------------|

                                      W                                   W
--------------10s---------------------------------------------------2h-5--2L----|
-----------10----10----------------------------------------------3--------------|
-----7--11----------11----------------------------------------2s----------------|
--7--------------------12-------------------------------------------------------|
--------------------------------------12L---------12----------------------------|
--------------------------10----------------------------------------------------|


------2-------------|--0h-2h-0-------|
--------------------|-----------3----|
--------------------|----------------|
--------------------|----------------|
--------------------|----------------|
--------------------|----------------|

  W  W  W     W  W  W  W  W  W        W  W  W  W
----------------------------------------------------|
--0L-0L-0L----0L-0L-0L-0L-0L-0L-------0L-0L-0L-0----|
----------------------------------------------------|
----------------------------------------------------|
----------------------------------------------------|
----------------------------------------------------|

                                      W                                   W
--------------12s---------------------------------------------------3h-7--7L----|
-----------12----12----------------------------------------------5--------------|
-----9--12----------12----------------------------------------4s----------------|
--9--------------------14-------------------------------------------------------|
--------------------------------------14L---------14----------------------14L---|
--------------------------12----------------------------------------------------|


------7-------------|
--------------------|
--------------------|
--------------------|
------14------------|
--------------------|

                                      W                                   W
--------------10s---------------------------------------------------2h-5--2L----|
-----------10----10----------------------------------------------3--------------|
-----7--11----------11----------------------------------------2s----------------|
--7--------------------12-------------------------------------------------------|
--------------------------------------12L---------12----------------------------|
--------------------------10----------------------------------------------------|


------2-------------|--14h12h14-17---|
--------------------|----------------|
--------------------|----------------|
--------------------|----------------|
--------------------|----------------|
--------------------|----------------|

  W  W  W     W  W  W  W  W  W        W  W  W  W
--19L19L19L---19L19L19L19L19L19L------19L19L19L19---|
----------------------------------------------------|
----------------------------------------------------|
----------------------------------------------------|
----------------------------------------------------|
----------------------------------------------------|


--14h15-14h12-10h12-10h9--10------------------------|
-----------------------------12---------------------|
--------------------------------11------------------|
-----------------------------------12---------------|
--------------------------------------14h16-14h12---|
----------------------------------------------------|

                                      W                                   W
--------5h-8--12s---------------------------------------------------------5L----|
-----5-----------10-------------------------------------------------------------|
--5s----------------9-----------------------------------------------------------|
-----------------------10-------------------------------------------------------|
--------------------------------------7L----------7L----------7L----------7L----|
--------------------------5-----------------------------------------------------|


------5-------------|--3h----5h----3-----2h----3--2h-0-------------------|
--------------------|-----------------------------------3h-1h-0----------|
--------------------|--------------------------------------------3h-2----|
--------------------|----------------------------------------------------|
------7-------------|----------------------------------------------------|
--------------------|----------------------------------------------------|

                                               W       w
--------------------2h-5-----2--------5h-9h-14-14---|--21---|
--------2--------2--------2-------------------------|-------|
-----2--------2-------------------------------------|-------|
--4-------------------------------------------------|-------|
----------------------------------------------------|-------|
----------------------------------------------------|-------|

                               w
--19s---17s---19h17-12h14---|--10---|
----------------------------|-------|
----------------------------|-------|
----------------------------|-------|
----------------------------|-------|
----------------------------|-------|


---------------------------------------------------------------|
---------------------------------------------------------------|
---------------------------------------------------------------|
---------------------------------------------------------------|
--------------------------------------------0h-2---------------|
--2>-2M-2M----2M-2>-2M-2M-2M-2M-------2>-2M-----------|


--------3h-7--5h-7--3h-7--------2h-5--3h-5--2h-5----|
-----5-----------------------3----------------------|
--4s----------------------2s------------------------|
----------------------------------------------------|
----------------------------------------------------|
----------------------------------------------------|

                                      W                                   W
--------3h-7--12s---------------------------------------------------------7L----|
-----5-----------12-------------------------------------------------------------|
--4s----------------12----------------------------------------------------------|
-----------------------14-------------------------------------------------------|
--------------------------------------14L---------14L---------14L---------14L---|
--------------------------12----------------------------------------------------|


------7-------------|
--------------------|
--------------------|
--------------------|
------14------------|
--------------------|

                                      W                                   W
--------2h-5--10s---------------------------------------------------------2L----|
-----3-----------10-------------------------------------------------------------|
--2s----------------11----------------------------------------------------------|
-----------------------12-------------------------------------------------------|
--------------------------------------12L---------12L---------12L---------12L---|
--------------------------10----------------------------------------------------|


------2-------------|--0h-2h-0-------|
--------------------|-----------3----|
--------------------|----------------|
--------------------|----------------|
------12------------|----------------|
--------------------|----------------|

  W  W  W     W  W  W  W  W  W        W  W  W  W
----------------------------------------------------|
--0L-0L-0L----0L-0L-0L-0L-0L-0L-------0L-0L-0L-0----|
----------------------------------------------------|
----------------------------------------------------|
----------------------------------------------------|
----------------------------------------------------|


--12h13-10h13-10h0--7h-0--8h-0--5h-0--7h-0--8h-0----|----|----|----|----|----|
----------------------------------------------------|----|----|----|----|----|
----------------------------------------------------|----|----|----|----|----|
----------------------------------------------------|----|----|----|----|----|
----------------------------------------------------|----|----|----|----|----|
----------------------------------------------------|----|----|----|----|----|


----|----|----------------|----------------------------|
----|----|-----------13~--|--12L---------12~---13~12~--|
----|----|--------9~------|----------------------------|
----|----|----------------|----------------------------|
----|----|----------------|----------------------------|
----|----|----------------|----------------------------|


----------------------------|-------|----------------------------|
--10~-----------------------|-------|----------------------------|
--------------9L----9~-10~--|--9~---|-----------------------9~---|
----------------------------|-------|----------------------------|
----------------------------|-------|----------------------------|
----------------------------|-------|----------------------------|


----------------------------|----------------------------|
----------------------------|----------------------------|
--9~-7~-7L-7~-7~-5~-5L-5~---|--5~-4~-4L-4~-5~-4~-2~-4~---|
----------------------------|----------------------------|
----------------------------|----------------------------|
----------------------------|----------------------------|


----------------------------------------------------|
----------------------------------------------------|
--4L----------------------4L----------4~-5~-4--2----|
----------------------------------------------------|
----------------------------------------------------|
----------------------------------------------------|


----------------------------|----|----|----|----|----|----|----|----|
----------------------------|----|----|----|----|----|----|----|----|
--4L-4L-4L-4L-4L-4L-4L-4~---|----|----|----|----|----|----|----|----|
----------------------------|----|----|----|----|----|----|----|----|
----------------------------|----|----|----|----|----|----|----|----|
----------------------------|----|----|----|----|----|----|----|----|


--------------------------5--0-----0--8--5-----5----|
--------------------------------1-----------5-------|
--------------5--2-----2----------------------------|
--7--2-----2--------2-------------------------------|
--------3-------------------------------------------|
----------------------------------------------------|


--------------------------17-12----12-20-17----17---|
--------------------------------13----------17------|
--------------17-14----14---------------------------|
--19-14----14-------14------------------------------|
--------15------------------------------------------|
----------------------------------------------------|


--24-22-20-19-20-22-20-19-------------------------12-10-8--7--8--10-8--7--------|
--------------------------19-20-22-20-19-17-19-20-------------------------7--8--|
--------------------------------------------------------------------------------|
--------------------------------------------------------------------------------|
--------------------------------------------------------------------------------|
--------------------------------------------------------------------------------|


--------------------|
10-8--7--5--7--8----|
--------------------|
--------------------|
--------------------|
--------------------|


--12-10-8--7--8--10-8--7--------------------------0-----------------------------|
--------------------------7--8--10-8--7--5--7--8-----3--1--0--1--3--1--0--------|
-----------------------------------------------------------------------------0--|
--------------------------------------------------------------------------4-----|
--------------------------------------------------------------------------------|
--------------------------------------------------------------------------------|


--------------------|--------------------------5--0-----0--8--5-----5----|
--------------------|--------------------------------1-----------5-------|
2--0-----------0----|--------------5--2-----2----------------------------|
------4--2--4-------|--7--2-----2--------2-------------------------------|
--------------------|--------3-------------------------------------------|
--------------------|----------------------------------------------------|


--------------------------17-12----12-20-17----17---|
--------------------------------13----------17------|
--------------17-14----14---------------------------|
--19-14----14-------14------------------------------|
--------15------------------------------------------|
----------------------------------------------------|


--12----------13----12-10---|--12~--|----|----|----|----|----|----|----|----||
----------------------------|-------|----|----|----|----|----|----|----|----||
----------------------------|-------|----|----|----|----|----|----|----|----||
----------------------------|-------|----|----|----|----|----|----|----|----||
----------------------------|-------|----|----|----|----|----|----|----|----||
----------------------------|-------|----|----|----|----|----|----|----|----||
Добавлено: 24.11.2015
Вам также может быть интересно:
Другие материалы по этой песне:
  • Аккорды и текст

Страница создана 24.11.2015
http://primanota.ru/joe-mcgurk/earth-aging-wisdom-chords.htm
Привет, Гость.
Предлагаем пройти революционный курс по гитаре.
Подарок от PrimaNota.Ru, забирай!