PrimaNota.ru - самый крупный в мире бесплатный архив песенных текстов, аккордов, табулатур и нот


Joe Lynn Turner - Power Of Love - таба, видео

Регистрация Запомнить меня
Войти через:  Facebook Google Twitter Vk Yandex Mail.ru

Joe Lynn Turner - Power Of Love - таба, видео

Печатать
Просмотров: 201
Уроки эстрадного вокала в Санкт-Петербурге
-----------------------------------------------------------------------------
		    Power of Love - by Joe Lynn Turner
-----------------------------------------------------------------------------
Tabbed by: Andy (yalaki)
Email: yalaki@hotmail.com

Tabbed by request.




Tuning: D sharp

******
Intro:
******

		
d#|------------------------|--------------------------------------------|
A#|------------------------|o-------------------------------------------|
F#|------------------------|--------------------------------------------|
C#|------------------------|---2---------------5------------------------|
G#|------------------------|o--2---------------5------------------------|
D#|--0-3-5-6p5p3p0-6p5p3p0-|---0---0-0-0-0-0-0-----0-0-0-0-0-0-0--------|
				         pm. . . . . .     . . . . . . .

d#|-------------------------------------------------|
A#|------------------------------------------------o|
F#|--------------------7----------------------------|
C#|--7-----------------7----------------------------|
G#|--7-----------------5---------------------------o|
D#|------0-0-0-0-0-0-0-----0-3-5-6p5p3p0-6p5p3p0----|
      pm . . . . . . . 

********
Verse 1:
********

"Living on the wrong side of town..."

d#|------|------|----------------------------------------------------------|
A#|------|------|----------------------------------------------------------|
F#|-9----|--5---|--2-----7---5---------------------------------------------|
C#|-9----|--5---|--2-----7---5--x\------5---7-5---2------------------------|
G#|-7----|--3---|--0-----5---3--x\------5---7-5---2------------------------|
D#|-0----|------|-------------------0-0---0-----0----0-3-5-6p5p3p0-6p5p3p0-|
				         pm . .   .     .

"......feel your life just fade away....."

d#|------|------|----------------------------------------------------------|
A#|------|------|----------------------------------------------------------|
F#|-9----|--5---|--2-----7---5---------------------------------------------|
C#|-9----|--5---|--2-----7---5--x\------5---7-5---2-----5---7-5------------|
G#|-7----|--3---|--0-----5---3--x\------5---7-5---2-----5---7-5-7----------|
D#|-0----|------|-------------------0-0---0-----0---0-0---0-----7----------|
				         pm . .   .     .   . .   .     

"It's always dark before the dawn..."

d#|------------------------------------------------------------------------|
A#|------------------------------------------------------------------------|
F#|--5---4~-2--------------------------------------------------------------|
C#|--5------2---x\------5---7-5---2-----5---7-5----------------------------|
G#|--3---2~-0---x\------5---7-5---2-----5---7-5-7--------------------------|
D#|-----------------0-0---0-----0---0-0---0-----7--------------------------|
		     pm . .   .     .   . .   .     

"But you're the reason that I can't go on..."

d#|------------------------------------------------------------------------|
A#|------------------------------------------------------------------------|
F#|--5---4~-2------4------------------7-7---7--7---------------------------|
C#|--5------2------4------------------7-7---7--7---------------------------|
G#|--3---2~-0------2---2-2-2-2-2-2-2--5-5---5--5---------------------------|
D#|------------------------------------------------------------------------|


*******
Chorus:
*******

"Some day all our dreams will find us..."

d#|------------------------------------------------------------------------|
A#|------------------------------------------------------------------------|
F#|-----------7------------------------------------------------------------|
C#|---5-------7------7-----------------------------------------------------|
G#|---5-------5------7----------------5~-----------------------------------|
D#|---3--------------5-------5~-7~-8~--------------------------------------|

"With a little help from Heaven above..."

d#|------------------------------------------------------------------------|
A#|------------------------------------------------------------------------|
F#|-----------7---------------5-5--5/7--7----------------------------------|
C#|---5-------7------7--------5-5--5/7--7----------------------------------|
G#|---5-------5------7--------3-3--3/5--5----------------------------------|
D#|---3--------------5-----------------------------------------------------|

"We're always gonna be together..."

d#|-----------------------------------------5-----7-------8----------------|
A#|---------------------------------------5-------7-------8----------------|
F#|-----------7-----------------------------------------------7------------|
C#|---5-------7------7----------------------------------------7-----x\-----|
G#|---5-------5------7-----------------7-------9------10------5-----x\-----|
D#|---3--------------5-------7--5--3---5-------7------8--------------------|

d#|---------------------------------------------|
A#|o--------------------------------------------|
F#|---------------------------------------------|
C#|---2---------------5-------------------------|
G#|o--2---------------5-------------------------|
D#|---0---0-0-0-0-0-0-----0-0-0-0-0-0-0---------|
        pm. . . . . .     . . . . . . .

d#|-------------------------------------------------|
A#|------------------------------------------------o|
F#|--------------------7----------------------------|
C#|--7-----------------7----------------------------|
G#|--7-----------------5---------------------------o|
D#|------0-0-0-0-0-0-0-----0-3-5-6p5p3p0-6p5p3p0----|
      pm . . . . . . . 

********
Verse 2:
********

"Lucky few they get the breaks..."

d#|------|------|----------------------------------------------------------|
A#|------|------|----------------------------------------------------------|
F#|-9----|--5---|--2-----7---5---------------------------------------------|
C#|-9----|--5---|--2-----7---5--x\------5---7-5---2------------------------|
G#|-7----|--3---|--0-----5---3--x\------5---7-5---2------------------------|
D#|-0----|------|-------------------0-0---0-----0----0-3-5-6p5p3p0-6p5p3p0-|
				         pm . .   .     .

"Through your eyes girl I can see..."

d#|------|------|----------------------------------------------------------|
A#|------|------|----------------------------------------------------------|
F#|-9----|--5---|--2-----7---5---------------------------------------------|
C#|-9----|--5---|--2-----7---5--x\------5---7-5---2-----5---7-5------------|
G#|-7----|--3---|--0-----5---3--x\------5---7-5---2-----5---7-5-7----------|
D#|-0----|------|-------------------0-0---0-----0---0-0---0-----7----------|
				         pm . .   .     .   . .   .     

"This crazy world is so unkind..."

d#|------------------------------------------------------------------------|
A#|------------------------------------------------------------------------|
F#|--5---4~-2--------------------------------------------------------------|
C#|--5------2---x\------5---7-5---2-----5---7-5----------------------------|
G#|--3---2~-0---x\------5---7-5---2-----5---7-5-7--------------------------|
D#|-----------------0-0---0-----0---0-0---0-----7--------------------------|
		     pm . .   .     .   . .   .     

"We gotta hold on to the people that we find..."

d#|------------------------------------------------------------------------|
A#|------------------------------------------------------------------------|
F#|--5---4~-2------4------------------7-7---7--7---------------------------|
C#|--5------2------4------------------7-7---7--7---------------------------|
G#|--3---2~-0------2---2-2-2-2-2-2-2--5-5---5--5---------------------------|
D#|------------------------------------------------------------------------|



*******
Chorus:
*******

"Some day all our dreams will find us..."

d#|------------------------------------------------------------------------|
A#|------------------------------------------------------------------------|
F#|-----------7------------------------------------------------------------|
C#|---5-------7------7-----------------------------------------------------|
G#|---5-------5------7----------------5~-----------------------------------|
D#|---3--------------5-------5~-7~-8~--------------------------------------|

"With a little help from Heaven above..."

d#|------------------------------------------------------------------------|
A#|------------------------------------------------------------------------|
F#|-----------7---------------5-5--5/7--7----------------------------------|
C#|---5-------7------7--------5-5--5/7--7----------------------------------|
G#|---5-------5------7--------3-3--3/5--5----------------------------------|
D#|---3--------------5-----------------------------------------------------|

"We're always gonna be together..."

d#|-----------------------------------------5-----7-------8----------------|
A#|---------------------------------------5-------7-------8----------------|
F#|-----------7-----------------------------------------------7------------|
C#|---5-------7------7----------------------------------------7-----x\-----|
G#|---5-------5------7-----------------7-------9------10------5-----x\-----|
D#|---3--------------5-------7--5--3---5-------7------8--------------------|

d#|---------------------------------------------|
A#|o--------------------------------------------|
F#|---------------------------------------------|
C#|---2---------------5-------------------------|
G#|o--2---------------5-------------------------|
D#|---0---0-0-0-0-0-0-----0-0-0-0-0-0-0---------|
        pm. . . . . .     . . . . . . .
				       play 4 times
d#|-------------------------------------------------|
A#|------------------------------------------------o|
F#|--------------------7----------------------------|
C#|--7-----------------7----------------------------|
G#|--7-----------------5---------------------------o|
D#|------0-0-0-0-0-0-0-----0-3-5-6p5p3p0-6p5p3p0----|
      pm . . . . . . . 

************
Guitar Solo:
************

Rhythm guitar:

d#|------------------------------------------------------------------------|
A#|------------------------------------------------------------------------|
F#|--5---4~-2--------------------------------------------------------------|
C#|--5------2---x\------5---7-5---2-----5---7-5----------------------------|
G#|--3---2~-0---x\------5---7-5---2-----5---7-5-7--------------------------|
D#|-----------------0-0---0-----0---0-0---0-----7--------------------------|
		     pm . .   .     .   . .   .     

d#|------------------------------------------------------------------------|
A#|------------------------------------------------------------------------|
F#|--5---4~-2------4------------------7-7---7--7---------------------------|
C#|--5------2------4------------------7-7---7--7---------------------------|
G#|--3---2~-0------2---2-2-2-2-2-2-2--5-5---5--5---------------------------|
D#|------------------------------------------------------------------------|


*******
Chorus:
*******

"Some day all our dreams will find us..."

d#|------------------------------------------------------------------------|
A#|------------------------------------------------------------------------|
F#|-----------7------------------------------------------------------------|
C#|---5-------7------7-----------------------------------------------------|
G#|---5-------5------7----------------5~-----------------------------------|
D#|---3--------------5-------5~-7~-8~--------------------------------------|

"With a little help from Heaven above..."

d#|------------------------------------------------------------------------|
A#|------------------------------------------------------------------------|
F#|-----------7---------------5-5--5/7--7----------------------------------|
C#|---5-------7------7--------5-5--5/7--7----------------------------------|
G#|---5-------5------7--------3-3--3/5--5----------------------------------|
D#|---3--------------5-----------------------------------------------------|

"We're always gonna be together..."

d#|-----------------------------------------5-----7-------8----------------|
A#|---------------------------------------5-------7-------8----------------|
F#|-----------7-----------------------------------------------7------------|
C#|---5-------7------7----------------------------------------7-----x\-----|
G#|---5-------5------7-----------------7-------9------10------5-----x\-----|
D#|---3--------------5-------7--5--3---5-------7------8--------------------|

d#|---------------------------------------------|
A#|o--------------------------------------------|
F#|---------------------------------------------|
C#|-------------------5-------------------------|
G#|o------------------5-------------------------|
D#|---0---0-0-0-0-0-0-----0-0-0-0-7-5-3---------|
        pm. . . . . .     . . . .   

d#|---------------5-----7-------8-----------------|
A#|-------------5-------7-------8----------------o|
F#|---------------------------------7-------------|
C#|---------------------------------7-----x\------|
G#|----------7-------9------10------5-----x\-----o|
D#|----------5-------7------8---------------------|

d#|---------------------------------------------|
A#|o--------------------------------------------|
F#|---------------------------------------------|
C#|---2---------------5-------------------------|
G#|o--2---------------5-------------------------|
D#|---0---0-0-0-0-0-0-----0-0-0-0-0-0-0---------|
        pm. . . . . .     . . . . . . .
				     repeat to fade
d#|-------------------------------------------------|
A#|------------------------------------------------o|
F#|--------------------7----------------------------|
C#|--7-----------------7----------------------------|
G#|--7-----------------5---------------------------o|
D#|------0-0-0-0-0-0-0-----0-3-5-6p5p3p0-6p5p3p0----|
       pm. . . . . . .



| /  slide up
| \  slide down
| h  hammer-on
| p  pull-off
| ~  vibrato
| +  harmonic
| x  Mute note
| b  Bend note
| r  Release bend
| pb Prebend note
===============================================================================
Добавлено: 16.03.2012
Вам также может быть интересно:
Другие материалы по этой песне:
  • Аккорды и текст

Страница создана 16.03.2012
http://primanota.ru/joe-lynn-turner/power-of-love-chords.htm
Привет, Гость.
Предлагаем пройти революционный курс по гитаре.
Подарок от PrimaNota.Ru, забирай!