PrimaNota.ru - самый крупный в мире бесплатный архив песенных текстов, аккордов, табулатур и нот


Joe Lynn Turner - Jump Start - таба, видео

Регистрация Запомнить меня
Войти через:  Facebook Google Twitter Vk Yandex Mail.ru

Joe Lynn Turner - Jump Start - таба, видео

Печатать
Просмотров: 197
Уроки эстрадного вокала в Санкт-Петербурге
-------------------------------------------------------------------------------
		    Jump Start - by Joe Lynn Turner
-------------------------------------------------------------------------------
Tabbed by: Andy (yalaki)
Email: yalaki@hotmail.com

The second track from Joe Lynn Turner's 2003 JLT album.

I haven't included the solo for this, just the rhythm guitar.

Tuning: D#

******
Intro:
******
								    Play twice
eb|---------------------------------------------------------------------------|
Bb|o-------------------------------------------------------------------------o|
Gb|---------------------------------------------------------------------------|
Db|---------------------------------------------------------------------------|
Ab|o-----------7-5-----5-------------------7-5-----5-------------------------o|
Eb|----0-0-5-7-----7-5---7-5-7--7--0-0-5-7-----7-5---7-5-7--------------------|

********
Verse 1:
********

eb|------------------------------------------------|
Bb|o-------------5----------------5----------------|
Gb|------------------------------------------------|
Db|--------7---7------------7---7------------------|
Ab|o-------7----------------7----------------------|
Eb|----0-3-5----------------5----------------------|

								   Play twice
eb|---------------------------------------------------------------------------|
Bb|--------------------------------------------------------------------------o|
Gb|---------------------------------------------------------------------------|
Db|---------------------------------------------------------------------------|
Ab|------------7-5-----5-------------------7-5-----5-------------------------o|
Eb|----0-0-5-7-----7-5---7-5-7--7--0-0-5-7-----7-5---7-5-7--------------------|



eb|------------------------------------------------------------------------------|
Bb|----------------------5--------------------5----------------------------------|
Gb|--------4------2-4------------4----2-4---------7---------7--------------------|
Db|--------4---------------------4----------------7----5-7--7-----7----5-5-5-5---|
Ab|--------2-----(2)-------------2---(2)----------5--------(5)----7----5-5-5-5---|
Eb|----0-3--------------------------------------------------------5----3-3-3-3---|
		let the 2 ring
*******
Chorus:
*******
								    Play twice
eb|---------------------------------------------------------------------------|
Bb|o-------------------------------------------------------------------------o|
Gb|---------------------------------------------------------------------------|
Db|---------------------------------------------------------------------------|
Ab|o-----------7-5-----5-------------------7-5-----5-------------------------o|
Eb|----0-0-5-7-----7-5---7-5-7--7--0-0-5-7-----7-5---7-5-7--------------------|

********
Verse 2:
********

eb|------------------------------------------------|
Bb|o-------------5----------------5----------------|
Gb|------------------------------------------------|
Db|--------7---7------------7---7------------------|
Ab|o-------7----------------7----------------------|
Eb|----0-3-5----------------5----------------------|

								   Play twice
eb|---------------------------------------------------------------------------|
Bb|--------------------------------------------------------------------------o|
Gb|---------------------------------------------------------------------------|
Db|---------------------------------------------------------------------------|
Ab|------------7-5-----5-------------------7-5-----5-------------------------o|
Eb|----0-0-5-7-----7-5---7-5-7--7--0-0-5-7-----7-5---7-5-7--------------------|




eb|------------------------------------------------------------------------------|
Bb|----------------------5--------------------5----------------------------------|
Gb|--------4------2-4------------4----2-4---------7---------7--------------------|
Db|--------4---------------------4----------------7----5-7--7-----7----5-5-5-5---|
Ab|--------2-----(2)-------------2---(2)----------5--------(5)----7----5-5-5-5---|
Eb|----0-3--------------------------------------------------------5----3-3-3-3---|
		let the 2 ring


*******
Chorus:
*******
								    Play twice
eb|---------------------------------------------------------------------------|
Bb|o-------------------------------------------------------------------------o|
Gb|---------------------------------------------------------------------------|
Db|---------------------------------------------------------------------------|
Ab|o-----------7-5-----5-------------------7-5-----5-------------------------o|
Eb|----0-0-5-7-----7-5---7-5-7--7--0-0-5-7-----7-5---7-5-7--------------------|


*******
Bridge:
*******
					         Play 3 times
eb|----------------------------------------------------------|
Bb|o--------------------------------------------------------o|
Gb|--5-5-5-4---7-7-6------5-5-5-4----------------------------|
Db|--5-5-5-5---7-7-7-7----5-5-5-5-----5-4-5------------------|
Ab|o-----------------7--------------------5-----------------o|
Eb|----------------------------------------------------------|

eb|----------------------------------------------------------|
Bb|----------------------------------------------------------|
Gb|--5-5-5-4---7-7-6------10-10-10-9------12-12-11-----------|
Db|--5-5-5-5---7-7-7-7----10-10-10-10-----12-12-12-12--------|
Ab|------------------7-----------------------------12--------|
Eb|----------------------------------------------------------|

************
Guitar Solo:
************
								    Play twice
eb|---------------------------------------------------------------------------|
Bb|o-------------------------------------------------------------------------o|
Gb|---------------------------------------------------------------------------|
Db|---------------------------------------------------------------------------|
Ab|o-----------7-5-----5-------------------7-5-----5-------------------------o|
Eb|----0-0-5-7-----7-5---7-5-7--7--0-0-5-7-----7-5---7-5-7--------------------|


eb|------------------------------------------------|
Bb|o-------------5----------------5----------------|
Gb|------------------------------------------------|
Db|--------7---7------------7---7------------------|
Ab|o-------7----------------7----------------------|
Eb|----0-3-5----------------5----------------------|

								   Play twice
eb|---------------------------------------------------------------------------|
Bb|--------------------------------------------------------------------------o|
Gb|---------------------------------------------------------------------------|
Db|---------------------------------------------------------------------------|
Ab|------------7-5-----5-------------------7-5-----5-------------------------o|
Eb|----0-0-5-7-----7-5---7-5-7--7--0-0-5-7-----7-5---7-5-7--------------------|


eb|-----------------------------------------------------------------------------|
Bb|---------------------5--------------------5----------------------------------|
Gb|-------4------2-4------------4----2-4---------7---------7--------------------|
Db|-------4---------------------4----------------7----5-7--7-----7----5-5-5-5---|
Ab|-------2-----(2)-------------2---(2)----------5--------(5)----7----5-5-5-5---|
Eb|---0-3--------------------------------------------------------5----3-3-3-3---|

*******
Chorus:
*******
								  
eb|---------------------------------------------------------------------------|
Bb|o--------------------------------------------------------------------------|
Gb|---------------------------------------------------------------------------|
Db|---------------------------------------------------------------------------|
Ab|o-----------7-5-----5-------------------7-5-----5--------------------------|
Eb|----0-0-5-7-----7-5---7-5-7--7--0-0-5-7-----7-5---7-5-7--------------------|

								 Play 3 times
eb|---------------------------------------------------------------------------|
Bb|--------------------------------------------------------------------------o|
Gb|---------------------------------------------------------------------------|
Db|---------------------------------------------------------------------------|
Ab|------------7-5-----5-------------------7-5-----5-------------------------o|
Eb|----0-0-5-7-----7-5---7-5-7--7--0-0-5-7-----7-5---7-5-7-----3-2------------|


eb|----------------|
Bb|----------------|
Gb|----------------|
Db|----------------|
Ab|----------------|
Eb|---0------------|



| /  slide up
| \  slide down
| h  hammer-on
| p  pull-off
| ~  vibrato
| +  harmonic
| x  Mute note
| b  Bend note
| r  Release bend
| pb Prebend note
| (2) let it ring while other notes are played


|----------|
|o--------o|
|----------|
|----------|  repeat section between double dots
|o--------o|
|----------|
===============================================================================
Добавлено: 28.05.2012
Другие материалы по этой песне:
  • Аккорды и текст

Страница создана 28.05.2012
http://primanota.ru/joe-lynn-turner/jump-start-chords.htm
Привет, Гость.
Предлагаем пройти революционный курс по гитаре.
Подарок от PrimaNota.Ru, забирай!