PrimaNota.ru - самый крупный в мире бесплатный архив песенных текстов, аккордов, табулатур и нот


Joe Lynn Turner - Devils Door - таба, видео

Регистрация Запомнить меня
Войти через:  Facebook Google Twitter Vk Yandex Mail.ru

Joe Lynn Turner - Devils Door - таба, видео

Печатать
Просмотров: 172
-------------------------------------------------------------------------------
		    Devil's Door - by Joe Lynn Turner
-------------------------------------------------------------------------------
Tabbed by: Andy (yalaki)
Email: yalaki@hotmail.com

Quite an energetic song this - high tempo with some cool riffs to play. It is
from Joe's 2005 "The Usual Suspects" album. A word of WARNING: in many places
in this song (particularly the verses) there are repeated D# phrases on the 6th
string. You may be tempted to strike these all with downstrokes. If you do this
then you are increasing your risk of being effected by RSI. Do not overplay these
parts. Take regular rests, especially if you are beginning to feel sore in your
right wrist.

As with the other JLT songs I have tabbed I have only included Al Pitrelli's
rhythm guitar part.

Good luck!



Tuning: D#

******
Intro:
******
					Play 4 times
eb|-------------------------------------------------|
Bb|o-----------------------------------------------o|
Gb|-------------------------------------------------|
Db|-------------------------------------------------|
Ab|o------5---5-5-5-5-5h7--------------------------o|
Eb|---5-7---7--------------0-0-0-0-0-0--------------|
			 pm. . . . . .

eb|---------------------------------------------------------------------------|
Bb|---------------------------------------------------------------------------|
Gb|---------------------------------------------------------------------------|
Db|--7-/-9--7--5/7--5--7--5----------7/9-------------7/9----------------------|
Ab|--5-/-7--5--5/7--5--7--5----------5/7-------------5/7----------------------|
Eb|--------------------------0-0-0-0-----0-0-0-0-0-0-----0-0------------------|
			    pm . . .     . . . . . .     . .

eb|---------------------------------------------------------------------------|
Bb|---------------------------------------------------------------------------|
Gb|------------------------7--------------------------------------------------|
Db|--7-/-9--7--7--5--7--5--7--------------------------------------------------|
Ab|--5-/-7--5--7--5--7--5--5--------------------------------------------------|
Eb|---------------------------------------------------------------------------|

********
Verse 1:
********

"Full moon fever..."

								Play 3 times
eb|-------------------------------------------------------------------------|
Bb|o-----------------------------------------------------------------------o|
Gb|-------------------------------------------------------------------------|
Db|-------------------------------------------------------------------------|
Ab|o--------------------------------------------5---5-5-5h7----------------o|
Eb|---0-0-0-0-0-0-0-0-0-0-0-0-0-0-0-0-0-0-0-5-7---7-------------------------|
   pm . . . . . . . . . . . . . . . . . . .

"Soon I'll be standing in the flame..."

eb|-------------------------------------------------------------------------|
Bb|-------------------------------------------------------------------------|
Gb|-------------------------------------------------------------------------|
Db|-------------------------------------------------------------------------|
Ab|---------------------------------------------5---5-5-5-5-----------------|
Eb|---0-0-0-0-0-0-0-0-0-0-0-0-0-0-0-0-0-0-0-5-7---7-------------------------|
   pm . . . . . . . . . . . . . . . . . . .

*******
Chorus:
*******

"I've been down this road before..."

eb|--------------------------------------------------------------------------|
Bb|--------------------------------------------------------------------------|
Gb|--------------------------------------------------------------------------|
Db|--7-/-9--7--5/7--5--7--5----------7/9-------------7/9---------------------|
Ab|--5-/-7--5--5/7--5--7--5----------5/7-------------5/7---------------------|
Eb|--------------------------0-0-0-0-----0-0-0-0-0-0-----0-0-----------------|
			  pm . . . .     . . . . . .     . .

"I keep coming back for more..."

eb|---------------------------------------------------------------------------|
Bb|---------------------------------------------------------------------------|
Gb|---------------------------------------------------------------------------|
Db|--7-/-9--7--5/7--5--7--5-------------------5----7--------------------------|
Ab|--5-/-7--5--5/7--5--7--5----------9---10---5----5--------------------------|
Eb|--------------------------0-2-3-5-7---8----3-------------------------------|


**In the above line, where you see "0-2-3-5" listen to the CD - you may decided
  to play this bit slightly differently. Maybe something like (palm muted):
  "...-0-0-0-0-2-2-0-0-3-3-0-0-5-5-5-5-..."
  This applies to each repeat of the chorus.**


"I'm knocking on the Devil's door..."

eb|------------------------------------------------------------------------|
Bb|------------------------------------------------------------------------|
Gb|------------------------------------------------------------------------|
Db|---9--7--7--5--7--5--2--------------------------------------------------|
Ab|---7--5--7--5--7--5--2--------------------------------------------------|
Eb|---------------------0--------------------------------------------------|

********
Verse 2:
********

"... Falling under the spell..."

								Play 3 times
eb|-------------------------------------------------------------------------|
Bb|o-----------------------------------------------------------------------o|
Gb|-------------------------------------------------------------------------|
Db|-------------------------------------------------------------------------|
Ab|o--------------------------------------------5---5-5-5h7----------------o|
Eb|---0-0-0-0-0-0-0-0-0-0-0-0-0-0-0-0-0-0-0-5-7---7-------------------------|
   pm . . . . . . . . . . . . . . . . . . .

"Salvation has forsaken me..."

eb|-------------------------------------------------------------------------|
Bb|-------------------------------------------------------------------------|
Gb|-------------------------------------------------------------------------|
Db|-------------------------------------------------------------------------|
Ab|---------------------------------------------5---5-5-5-5-----------------|
Eb|---0-0-0-0-0-0-0-0-0-0-0-0-0-0-0-0-0-0-0-5-7---7-------------------------|
   pm . . . . . . . . . . . . . . . . . . .

*******
Chorus:
*******

"I've been down this road before..."

eb|---------------------------------------------------------------------------|
Bb|---------------------------------------------------------------------------|
Gb|---------------------------------------------------------------------------|
Db|--7-/-9--7--5/7--5--7--5----------7/9-------------7/9----------------------|
Ab|--5-/-7--5--5/7--5--7--5----------5/7-------------5/7----------------------|
Eb|--------------------------0-0-0-0-----0-0-0-0-0-0-----0-0------------------|
			  pm . . . .     . . . . . .     . .

"I keep coming back for more..."

eb|----------------------------------------------------------------------------|
Bb|----------------------------------------------------------------------------|
Gb|----------------------------------------------------------------------------|
Db|--7-/-9--7--5/7--5--7--5-------------------5----7---------------------------|
Ab|--5-/-7--5--5/7--5--7--5----------9---10---5----5---------------------------|
Eb|--------------------------0-2-3-5-7---8----3--------------------------------|


"I'm knocking on the Devil's door..."

eb|--------------------------------------------------------------------------|
Bb|--------------------------------------------------------------------------|
Gb|------------------------7/9-----------------------------------------------|
Db|--7-/-9--7--7--5--7--5--7/9-----------------------------------------------|
Ab|--5-/-7--5--7--5--7--5--5/7-----------------------------------------------|
Eb|--------------------------------------------------------------------------|


************
Guitar Solo:
************

Organ and Bass only during the main solo. Once this ends the guitar come back in with:

								 Play 4 times
eb|--------------------------------------------------------------------------|
Bb|o------------------------------------------------------------------------o|
Gb|--------------------------------------------------------------------------|
Db|---7--8--9----------------------------------------------------------------|
Ab|o--5--6--7----------5----------------------------------------------------o|
Eb|--------------5-6-7-----7----3-5-6-7----5-3--5-3-0--0---------------------|


********
Verse 3:
********

"... Can't wake up from the dream..."

								Play 3 times
eb|-------------------------------------------------------------------------|
Bb|o-----------------------------------------------------------------------o|
Gb|-------------------------------------------------------------------------|
Db|-------------------------------------------------------------------------|
Ab|o--------------------------------------------5---5-5-5h7----------------o|
Eb|---0-0-0-0-0-0-0-0-0-0-0-0-0-0-0-0-0-0-0-5-7---7-------------------------|
   pm . . . . . . . . . . . . . . . . . . .

"I know I'll never ever get away..."
								
eb|-------------------------------------------------------------------------|
Bb|-------------------------------------------------------------------------|
Gb|-------------------------------------------------------------------------|
Db|-------------------------------------------------------------------------|
Ab|---------------------------------------------5---5-5-5-5-----------------|
Eb|---0-0-0-0-0-0-0-0-0-0-0-0-0-0-0-0-0-0-0-5-7---7-------------------------|
   pm . . . . . . . . . . . . . . . . . . .

*******
Chorus:
*******

"I've been down this road before..."

eb|---------------------------------------------------------------------------|
Bb|---------------------------------------------------------------------------|
Gb|---------------------------------------------------------------------------|
Db|--7-/-9--7--5/7--5--7--5----------7/9-------------7/9----------------------|
Ab|--5-/-7--5--5/7--5--7--5----------5/7-------------5/7----------------------|
Eb|--------------------------0-0-0-0-----0-0-0-0-0-0-----0-0------------------|
			    pm . . .     . . . . . .     . .

"I keep coming back for more..."

eb|----------------------------------------------------------------------------|
Bb|----------------------------------------------------------------------------|
Gb|----------------------------------------------------------------------------|
Db|--7-/-9--7--5/7--5--7--5--------------------5---7---------------------------|
Ab|--5-/-7--5--5/7--5--7--5----------9---10----5---5---------------------------|
Eb|--------------------------0-2-3-5-7---8-----3-------------------------------|


"I'm knocking on the Devil's door..."

eb|--------------------------------------------------------------------------|
Bb|--------------------------------------------------------------------------|
Gb|--------------------------------------------------------------------------|
Db|------9--7--7--5--7--5----------------------------------------------------|
Ab|------7--5--7--5--7--5----------------------------------------------------|
Eb|------------------------0-0-0-0-0-0-0-0-0-0-0-0-0-0-0-0-------------------|
			pm . . . . . . . . . . . . . . . .

"Time after time, how can I find?..."

eb|-----------------------|
Bb|-----------------------|
Gb|-----------------------|
Db|------------5---7------|
Ab|---9---10---5---5------|
Eb|---7---8----3----------|


"I'm knocking on the Devil's door..."
							       Play 4 times
eb|-----------------------------------------------------------------------|
Bb|o---------------------------------------------------------------------o|
Gb|-----------------------------------------------------------------------|
Db|---9--7--7--5--7--5----------------------------------------------------|
Ab|o--7--5--7--5--7--5---------------------------------------------------o|
Eb|---------------------0-0-0-0-0-0-0-0-0-0-0-0-0-0-0-0-------------------|
			pm . . . . . . . . . . . . . . . .


		  Play 3 times
eb|---------------------------|---------------------|
Bb|o-------------------------o|---------------------|
Gb|---------------------------|---9---------9-------|
Db|----5/9--7--7--5--7--5-----|---9---------9-------|
Ab|o---5/7--5--7--5--7--5----o|---7---------7-------|
Eb|---------------------------|---0---------0-------|






| /  slide up
| \  slide down
| h  hammer-on
| p  pull-off
| ~  vibrato
| +  harmonic
| x  Mute note
| b  Bend note
| r  Release bend
| pb Prebend note
===============================================================================
Добавлено: 22.03.2012
Другие материалы по этой песне:
  • Аккорды и текст

Страница создана 22.03.2012
http://primanota.ru/joe-lynn-turner/devils-door-chords.htm
Привет, Гость.
Предлагаем пройти революционный курс по гитаре.
Подарок от PrimaNota.Ru, забирай!