PrimaNota.ru - самый крупный в мире бесплатный архив песенных текстов, аккордов, табулатур и нот


Joe Jackson - Pretty Girls - текст песни, бас-таба, видео

Регистрация Запомнить меня
Войти через:  Facebook Google Twitter Vk Yandex Mail.ru

Joe Jackson - Pretty Girls - текст песни, бас-таба, видео

Печатать
Просмотров: 124
Уроки эстрадного вокала в Санкт-Петербурге
Авторы музыки: Joe Jackson
Авторы текста: Joe Jackson
-------------------------------------------------------------------------------
                             Pretty Girls  Joe Jackson
-------------------------------------------------------------------------------

  Intro: 13 seconds in  
G|---------------------------------------------------------------------------|
D|-------------4-7-------------4-7-------------4-7---------------------------|
A|-----4-7-5-5---------4-7-5-5---------4-7-5-5-----7-4-----------------------|
E|-5-5-------------5-5-------------5-5-----------------7-5-------------------|
  
  Verse:
G|---------------------------------------------------------------------------|
D|-------------------------------------------------------------------9-9-9---|
A|-----5-5-----5-5-----5-7-7-7-------5-5-----5-5-----5-5-7-7---7-7-7---------|
E|-5-5-----5-5-----5-5---------5-5-5-----5-5-----5-5---------5---------------|

G|---------------------------------------------------------------------------|
D|---------4-7---------------------------------------------------------------|
A|-5-5-5-5-----5-------------------------------------------------------------|
E|---------------------------------------------------------------------------|
  
  Verse: 40 seconds in
G|---------------------------------------------------------------------------|
D|-------------------------------------------------------------------9-6-----|
A|-----5-5-----5-5-----5-7-7-7-------5-5-----5-5-----5-5-7-7---7-7-7-----977-|
E|-5-5-----5-5-----5-5---------5-5-5-----5-5-----5-5---------5---------------|

G|---------------------------------------------------------------------------|
D|---------4-7-4-------------------------------------------------------------|
A|---5-5-5-------7-5-5-7-7-7-5-5-5-------------------------------------------|
E|---------------------------------------------------------------------------|
  
  Chorus:  1:06 in
G|---------------------------------------------------------------------------|
D|---------4-7---------4---------------------4-7---------4-7---------47------|
A|---4-7-5-------4-7-5---7-7-7-5-5-5---4-7-5-------4-7-5-------4-7-5-----74--|
E|-5-----------5---------------------5-----------5-----------5-------------75|
  
  Verse:  1:18 in
G|-------------------------------------------------------------------6---9-6-|
D|---------------------------7-----------------------------------------9-----|
A|-----5-5-----5-5-----5-7-7---------5-5-----5-5-----5-5-7-7---7-7-7---------|
E|-5-5-----5-5-----5-5---------5-5-5-----5-5-----5-5---------5---------------|

G|---------------------------------------------------------------------------|
D|-9-6---------4-7-4---------------------------------------------------------|
A|-----7-5-5-5--------7-5-7-7-7-7-5-5-5--------------------------------------|
E|---------------------------------------------------------------------------|

  Chorus:  1:42
G|---------------------------4-6-7-6-4---------------------------------------|
D|---------4-7---------4-7-------------7-----------------4-7---------4-7-----|
A|---4-7-5-------4-7-5-----7-------------5-5-5-5---4-7-5-------4-7-5---------|
E|-5-----------5---------------------------------5-----------5---------------|

G|---------------------------------------------------------------------------|
D|---------4-7---------------------------------------------------------------|
A|---4-7-5-----7-4-----------------------------------------------------------|
E|-5---------------7-5-------------------------------------------------------|
  
  "Don't talk to me about women's liberation", 1:56 
G|---------------------------------------------------------------------------|
D|---------2-----------------------------------------------------------------|
A|-7-7-7-5---7-5-------5-5-5-7-----------------------------------------------|
E|---------------7-7-7-------------------------------------------------------|
  
  2:03, rest for four bars then start playing G

  "see that pretty, pretty...", 2:17
G|---------------------------------------------------------------------------|
D|-------4-7---------------4-7---------4-7-------4-7---------------4-7-------|
A|-7-7-7-----5-5-5---4-7-5-------4-7-5-----7-7-7-----5-5-5---4-7-5-----------|
E|-----------------5-----------5---------------------------5-----------------|

G|---------------4-6-7-6-4--------------------------------------4-6-7-6-4----|
D|---------4-7-7-----------7------------------4-7---------4-7----------------|
A|---4-7-5-------------------5-5-5-5----4-7-5-------4-7-5-----7--------------|
E|-5----------------------------------5-----------5--------------------------|

G|---4-6-7-6-4-------------------------------------4-6-7-6-4-----------------|
D|-------------7-----------------4-7---------4-7-------------7---------------|
A|-7-------------5-5-5-5---4-7-5-------4-7-5-----7-------------5-5-5-5-------|
E|-----------------------5-----------5---------------------------------------|

G|---------------------------------------------------------------------------|
D|-7---------------4-7---------4-7---------4-7-------------------------------|
A|---5-5-5---4-7-5-------4-7-5-------4-7-5-----7-4---------------------------|
E|---------5-----------5-----------5---------------7-5-----------------------|


===============================================================================
Добавлено: 12.12.2015
Другие материалы по этой песне:
  • Аккорды и текст

Страница создана 04.07.2012
http://primanota.ru/joe-jackson/pretty-girls-chords.htm
Привет, Гость.
Предлагаем пройти революционный курс по гитаре.
Подарок от PrimaNota.Ru, забирай!