PrimaNota.ru - самый крупный в мире бесплатный архив песенных текстов, аккордов, табулатур и нот


Joe Jackson - Biology - текст песни, бас-таба, видео

Регистрация Запомнить меня
Войти через:  Facebook Google Twitter Vk Yandex Mail.ru

Joe Jackson - Biology - текст песни, бас-таба, видео

Печатать
Просмотров: 130
Biology Bass Tab

Intro: optional notes[x] to be played every 2Xs by plucking string hard

G|-[44]-----------------|......|--44------------------|-----4---|
D|----------------------|11X...|----------------------|---------|
A|--22-----00-----------|last 1|---------00-----------|--2------|
E|-----2-3-----3-2------|......|-----2-3----3-2---0---|---------|

V1 HELLO…I'm back again…
said…
G|----------------------|......|----------------------|-----4---|
D|----------------------|2X....|----------------------|---------|
A|--22-----00-----------|last 1|--22-----00-----------|--2------|
E|-----2-3-----3-2------|......|-----2-3----3-2---0---|---------|

V2 So this is what…
G|----------------------|
D|----------------------|4X
A|--22-----00-----------|
E|-----2-3-----3-2------|

Chorus
G|------------------------------------------------------------|
D|--2-2---4-4---5-5---7-------4-4---5-5---7-7-----------------|
A|---2-----4—----5-------------4-----5-----7------------------|
E|-0-----2-----3-----5-53----2-----3-----5-----7--3--5--------|

	B I O L O G Y….
G|------------------------------------------------------------|
D|----5--------------------------4--------[/9754]-------------|
A|---5-5-5----5-5555555-4-4452-/5-542-------------------------|
E|--3---3-3-35-----------------------575---/7532-3-/7-5-------|

V3 Your Biology lesson starts here…					     _
                    which…
G|----------------------|......|----------------------|-----4---|
D|----------------------|4X....|----------------------|---------|
A|--22-----00-----------|last 1|--22-----00-----------|--2------|
E|-----2-3-----3-2------|......|-----2-3----3-2---0---|---------|

V4 Multiply and start to shout…
G|----------------------|
D|----------------------|4X
A|--22-----00-----------|
E|-----2-3-----3-2------|


Chorus
G|------------------------------------------------------------|
D|--2-2---4-4---5-5---7-------4-4---5-5---7-7-----------------|
A|---2-----4—----5-------------4-----5-----7------------------|
E|-0-----2-----3-----5-53----2-----3-----5-----7--3--5--------|

	B I O L O G Y….
G|------------------------------------------------------------|
D|----5--------------------------4---------/9754--------------|
A|---5-5-5----5-5555555-4-4452-/5-542-------------------------|
E|--3---3-3-35-----------------------575---------3-/2-5-------|

G|-----------------------------------------------------[/6]------------|
D|-/9754--------/9754----------/9754-------/9754---------|-------------|
A|-------------------------------------------------------|-------------|
E|-------3-/2-5--------3-/2-5--------3-/2-5---------3-2-/5---5-5555----|

Bridge (close but not totally sure on the bridge)
G|--------------------------------|----------------------------|
D|--------------------------------|----------------------------|
A|--22----330--------4----3-0-----|-22----330------------------|
E|-----23-----3-2--22-2-3-----3-2-|----23-----3-2-0-0-0-0-0-0-0|

G|--------------------------------|---------------------------------|
D|--------------------------------|---------------------------------|
A|--22----330--------4----3-0-----|-22----330--------4----3-0-------|
E|-----23-----3-2--22-2-3-----3-2-|----23-----3-2-022-2-3-----3-2---|

Chorus
G|------------------------------------------------------------|
D|--2-2---4-4---5-5---7-------4-4---5-5---7-7-----------------|
A|---2-----4—----5-------------4-----5-----7------------------|
E|-0-----2-----3-----5-53----2-----3-----5-----7--3--5--------|

	B I O L O G Y….
G|--------------------------------------------------[/6]----------|
D|----5--------------------------4---------/9754------------------|
A|---5-5-5----5-5555555-4-4452-/5-542-----------------------------|
E|--3---3-3-35-----------------------575---------3-2-/5-----3-2-5-|
Добавлено: 14.06.2012
Другие материалы по этой песне:
  • Аккорды и текст

Страница создана 03.04.2012
http://primanota.ru/joe-jackson/biology-chords.htm
Привет, Гость.
Предлагаем пройти революционный курс по гитаре.
Подарок от PrimaNota.Ru, забирай!