PrimaNota.ru - самый крупный в мире бесплатный архив песенных текстов, аккордов, табулатур и нот


Joe Henderson - Recordame - таба, видео

Регистрация Запомнить меня
Войти через:  Facebook Google Twitter Vk Yandex Mail.ru

Joe Henderson - Recordame - таба, видео

Печатать
Просмотров: 96
Авторы музыки: Joe Henderson

-------------------------------------------------------------------------------
                            Recorda Me - Joe Henderson
-------------------------------------------------------------------------------
Tuning: Standard
               Am7
e|------------|---------------------|----------------|----------------|----------------|
B|------------|---------------------|----------------|----------------|----------------|
G|------------|---------------------|----------------|----------------|--------7-8-----|
D|----9-10----|-----------------7-9-|9---7-9---10----|------7---9---9-|--7-9-7-----5---|
A|--7-----7---|9--------------10----|------------7---|9-10------------|--------------6-|
E|----------8-|---------------------|--------------8-|----------------|----------------|

  Cm7                                                        F7
e|----------------|----------------|----------------|----------------|
B|----------------|----------------|----------------|----------------|
G|------------5-7-|7---5-7---8-----|------5---7---7-|------5-7---5---|
D|7---------8-----|------------5---|7-8-------------|----------------|
A|----------------|--------------6-|----------------|--------------8-|
E|----------------|----------------|----------------|----------------|

  Bbmaj7           Bbm7     Eb7     Abmaj7           Abm7     Db7
e|----------------|----------------|----------------|----------------|
B|----------------|----------------|----------------|----------------|
G|----------------|------5---------|----------------|----------------|
D|----------------|------------8-5-|--------------8-|--------6-------|
A|----------------|--6-8-----------|6---------5-6---|------------8---|
E|----------------|----------------|----------------|--------------9-|


  Gbmaj7           Gm7      C7      Fmaj7       E7(#9)
e|----------------|----------------|----------------|----------------|
B|----------------|----------------|----------------|----------------|
G|----------------|----------------|----------------|----------------|
D|----------------|----7-----------|----------------|--------9-10----|
A|----------------|--------------10|------------10--|------7-----7---|
E|----------------|----------------|8-----8---------|--------------8-|
Добавлено: 16.12.2015
Вам также может быть интересно:
Другие материалы по этой песне:

Страница создана 03.04.2012
http://primanota.ru/joe-henderson/recordame-chords.htm
Привет, Гость.
Предлагаем пройти революционный курс по гитаре.
Подарок от PrimaNota.Ru, забирай!