PrimaNota.ru - самый крупный в мире бесплатный архив песенных текстов, аккордов, табулатур и нот


Joe Ely - Treat Me Like A Saturday Night - текст песни, таба, видео

Регистрация Запомнить меня
Войти через:  Facebook Google Twitter Vk Yandex Mail.ru

Joe Ely - Treat Me Like A Saturday Night - текст песни, таба, видео

Печатать
Просмотров: 48
Joe Ely
Album Joe Ely

The tab/progression is repeated for the most part.  The verses are numbered.  The only deviation from
The pattern is the end of the third verse.  Follow the recording for the feel.

Capo IV

G/D

-------------------------------------------------------------------------------------------------|
---------------------------------------------------------------------------------------------------|
-------0------0---0------------------0--------0-----0----------------------------------------------|
-----0---2--2---3---0--2--0------0------2--2-----3-----0---2---0-----------------------------------|
---------------------------------------------------------------------------------------------------|
-3---------------------------3----------------------------------------------------------------------|

1. I'm going out where the lights don't shine so bright
2. I'm glad to see you coming, I'm glad to see you go, She once told me
3. Don't make me wait so long before you let me back in
4. You gotta give up something when you try out anything new
5. The things you've said don't mean so much to me, I am sorry, Love
6. I'm going out where the lights don't shine so bright

C                                                 am7            G
-----------------------------------------------------------------------------|
-----------------------------------------------------------------------------|
-------0--------------0--------------0-----------------0---------------0-----|
---------2---------------2---------------0-----------------2--------------0--|
--3--------------3---------------2----------------0--------------------------|
------------------------------------------------------------------3----------|

1. I'm going out where the lights don't shine so bright
2. Glad to see you coming I'm glad to see you go.
3. Don't make me wait so long before you let me back in
4. You gotta give up something when you try out anything new
5. The things you've said don't mean so much to me
6. I'm going out where the lights don't shine so bright.

-3-----------------------------------3--------------------------------------------------------------|
----------------------------------------------------------------------------------------------------|
----------------------------------------------------------------------------------------------------|
---------0--------0----0-------------------0-------0-----0------------------------------------------|
------0-----2-2------3----0---2--0------0-----2--2---3------0---2----0------------------------------|
----------------------------------------------------------------------------------------------------|


    D                          C                       G
1. When I get back you can treat me like a Saturday night.
2. But how I miss you sometimes, Love, you will never know.
    D                     Bm            D                Bm
3. Knowing she's going to lose Might give my baby the blues
    D                           C                    G
   But it won't ever keep my baby from trying to win   (solo)
4.  But whatever I give up, Love, it won't be you
5. When I get back you can treat me like a Saturday night
Добавлено: 22.11.2015
Другие материалы по этой песне:
  • Аккорды и текст

Страница создана 23.02.2012
http://primanota.ru/joe-ely/treat-me-like-a-saturday-night-chords.htm
Привет, Гость.
Предлагаем пройти революционный курс по гитаре.
Подарок от PrimaNota.Ru, забирай!