PrimaNota.ru - самый крупный в мире бесплатный архив песенных текстов, аккордов, табулатур и нот


Joe Cocker - Seven Days - текст песни, бас-таба, видео

Регистрация Запомнить меня
Войти через:  Facebook Google Twitter Vk Yandex Mail.ru

Joe Cocker - Seven Days - текст песни, бас-таба, видео

Печатать
Просмотров: 283
Авторы музыки: Bob Dylan
Авторы текста: Bob Dylan



Date: Sat, 18 Feb 2006 17:49:57 +0100 (CET)
From: [iso-8859-1] Jan Bjяfffffffffff6rklund 
Subject: c/cocker_joe/seven_days.btab

Seven Days.btab
Joe Cocker
TablEdited by Poppamies
Tuning : E A D G 	Time Signature: 4/4

 tempo 128       |       |        |       |       |       |        
|--------------------------------|--------------------------------|
|--------------------------------|--------------------------------|
|--------------------------------|--------------------------------|
|--------------------------------|0---0---2---3---0---0-------0---|

 |       |       |       |        |       |       |       |        
|--------------------------------|--------------------------------|
|--------------------------------|--------------------------------|
|--------------------------------|--------------------------------|
|0---0---3---2---0---0-------0---|0---0---2---3---0---0-------0---|

 |       |       |       |        |       |       |       |        
|--------------------------------|--------------------------------|
|--------------------------------|--------------------------------|
|--------------------------------|--------------------------------|
|0---0---3---2---0---0-------0---|0---0-------0-------0-------0---|

 |       |       |       |        |       |       |       |        
|--------------------------------|--------------------------------|
|--------------------------------|--------------------------------|
|--------------------------------|--------------------------------|
|0---0---3---2---0---0-------0---|0---0-------0-------0-------0---|

 |       |       Seven   |        days... |       |       |        
|--------------------------------|--------------------------------|
|--------------------------------|--------------------------------|
|--------------------------------|--------------------------------|
|0---0---2---3---0---0-------0---|0---0-------0-------0-------0---|

 |       |       |       |        |       |       |       |        
|--------------------------------|--------------------------------|
|--------------------------------|--------------------------------|
|--------------------------------|--------------------------------|
|0---0-------0-------0-------0---|0---0-------0-------0-------0---|

 |       |       Seven more       days... |       |       |        
|--------------------------------|--------------------------------|
|--------------------------------|--------------------------------|
|--------------------------------|3---3-------3-------3-------3---|
|0---0-------0-------0-------3---|--------------------------------|

 |       |       |       |        |       |       |       |        
|--------------------------------|--------------------------------|
|--------------------------------|--------------------------------|
|--------------------------------|2---2-------2-------2-------2---|
|3---3-------3-------3-------3---|--------------------------------|

 |       |       |       |        |       for her to a-   |        
|--------------------------------|--------------------------------|
|--------------------------------|--------------------------------|
|--------------------------------|0---0-------0-------0-----------|
|0---0-------0-------0-------0---|----------------------------3---|

 rive... |       |       |        |       |       |       |        
|--------------------------------|--------------------------------|
|--------------------------------|--------------------------------|
|0---0-------0-------0-------0---|0---0-------0-------0-------0---|
|--------------------------------|--------------------------------|

 |       |       |       |        |       |       |       |        
|------------------------2---4---|--------------------------------|
|--------------------2/4---------|--------------------------------|
|2---2-------2-------------------|--------------------------------|
|--------------------------------|0---0-------0-------0-------0---|

 |       |       |       |        |       |       |       |        
|--------------------------------|--------------------------------|
|--------------------------------|--------------------------------|
|--------------------------------|--------------------------------|
|0---0-------0-------0-------0---|0---0-------0-------0-------0---|

 |       She's been gone...       |       |       |       |        
|--------------------------------|--------------------------------|
|--------------------------------|--------- and so on... ---------|
|--------------------------------|--------------------------------|
|0---0---3---2---0---0-------0---|--------------------------------|

Transcribe  6.0 transcription http://www.seventhstring.demon.co.uk/
Created with TablEdit http://www.tabledit.com/
http://www.geocities.com/jani_bjorklund/janis.html


Добавлено: 25.12.2013
Другие материалы по этой песне:
  • Аккорды и текст

Страница создана 23.03.2012
http://primanota.ru/joe-cocker/seven-days-chords.htm
Привет, Гость.
Предлагаем пройти революционный курс по гитаре.
Подарок от PrimaNota.Ru, забирай!