PrimaNota.ru - самый крупный в мире бесплатный архив песенных текстов, аккордов, табулатур и нот


Joe Budden - Runaway - таба, видео

Регистрация Запомнить меня
Войти через:  Facebook Google Twitter Vk Yandex Mail.ru

Joe Budden - Runaway - таба, видео

Печатать
Просмотров: 76
-------------------------------------------------------------------------------
                             Runaway - Joe Budden
-------------------------------------------------------------------------------
Tabbed by: guitarhodgie
E-mail:

Tuning: standard

Starts around 2:50

This was done completely by ear so there may be a few mistakes

e|---------------------------------9h11-------------11h14/16-16-16\------------|
B|-------------9h12-----------9h12------------12h14----------------------------|
G|------8h11------------8h11------------11h13----------------------------------|
D|-6h9----------------9--------------------------------------------------------|
A|-----------------------------------------------------------------------------|
E|-----------------------------------------------------------------------------|

e|-18b20b18-16-14-16-16-16/18\16-14-14----------------19-21-21b23b21-19 19 ----|
B|--------------------------------------------19-19-21--------------------21\--|
G|--------------------------------------18h20----------------------------------|
D|-----------------------------------------------------------------------------|
A|-----------------------------------------------------------------------------|
E|-----------------------------------------------------------------------------|

e|-----14-14---14/16----16/18-18----------------=--------------------11h14-16--|
B|---12------12-------14--------14-12-14b1614-12-14-12h14-12-----12h14---------|
G|-11-------11------13---------------------------------------11h13-------------|
D|-----------------------------------------------------------------------------|
A|-----------------------------------------------------------------------------|
E|-----------------------------------------------------------------------------|
        x8
e|---4---|------------------------------------------------------------------------------|
B|-----7-|-7p4---4-----------------14b16-14b16b14-12-12h14-12---------------------------|
G|-6b----|-----6--6p4--------4*-/6\--------------------------13-11/13-13/16\13--11-13---|
D|-------|-----------6p4-4h6--------------------------------------------------13--------|
A|-------|--------------6---------------------------------------------------------------|
E|-------|------------------------------------------------------------------------------|

e|-----------------------------------------------------------------------------|
B|---12-12-12h14-12---------------------14b16----------------------------------|
G|-13---------------11-11/13-13/16\11\8--------6-4-3---------------------------|
D|---------------------------------------------------4---4---------------------|
A|-----------------------------------------------------6-----------------------|
E|-----------------------------------------------------------------------------|

e|-/19p16-------16\14-------------14\12--12\11---------------6h7p6--6-7-9/11---|
B|--------19p16------16p14------14-----14----------------7-9------9------------|
G|------------------------16p15--------------------6-8-9-----------------------|
D|--------------------------------------------6-8-9----------------------------|
A|-----------------------------------------------------------------------------|
E|-----------------------------------------------------------------------------|

e|-16h18p16---16-16h19p16--16h18p16---16-16h19p16--16----------------16-21-18-19-18-19-18-19-18------|
B|---------17------------17--------17------------17---17p16--16-17-19---------------------------16---|
G|---------------------------------------------------------18-----------------------------------18b20|
D|---------------------------------------------------------------------------------------------------|
A|---------------------------------------------------------------------------------------------------|
E|---------------------------------------------------------------------------------------------------|

e|----------------------------------------------------------------------------------|
B|-14b16-14b16b14-12-14-12/14-12----------------------------------------------------|
G|-------------------------------13-11-11h13--11\13/11-11*/13\11-11*/16/13-11-11/13-|
D|----------------------------------------------------------------------------------|
A|----------------------------------------------------------------------------------|
E|----------------------------------------------------------------------------------|

                                                               *Press down on whammy bar
e|-14-14-------------------------------------------------7h9-------------------|
B|-------14b16b14p12--12--------12h14p12-------4h7----7h9---9--7---------------|
G|------------------13--13p11h13------------4h6---4/6----------4---------------|
D|---------------------------------------4h6-----------------------------------|
A|-----------------------------------------------------------------------------|
E|-----------------------------------------------------------------------------|

e|--------------------------------16\------------------------------------------|
B|-------------------------4h5h7--9--------------------------------------------|
G|------1h3h4-3h4h6---3h4h6----------------------------------------------------|
D|-1h2h4-----------------------------------------------------------------------|
A|-----------------------------------------------------------------------------|
E|-----------------------------------------------------------------------------|


************************************

| /   slide up
| \   slide down
| h   hammer-on
| p   pull-off
| ~   vibrato
| +   harmonic
| *   pinch harmonic
| x   Mute note
| b   Bend
| pb  Pre-bend
| br  Bend release
| pbr Pre-bend release
| brb Bend release bend

************************************
Добавлено: 21.12.2015
Другие материалы по этой песне:
  • Аккорды и текст

Страница создана 21.12.2015
http://primanota.ru/joe-budden/runaway-chords.htm
Привет, Гость.
Предлагаем пройти революционный курс по гитаре.
Подарок от PrimaNota.Ru, забирай!