PrimaNota.ru - самый крупный в мире бесплатный архив песенных текстов, аккордов, табулатур и нот


Joe Bonamassa - Reconsider Baby - текст песни, таба, видео

Регистрация Запомнить меня
Войти через:  Facebook Google Twitter Vk Yandex Mail.ru

Joe Bonamassa - Reconsider Baby - текст песни, таба, видео

Печатать
Просмотров: 351
Уроки эстрадного вокала в Санкт-Петербурге
Авторы музыки: Lowell Fulson
Авторы текста: Lowell Fulson
It's basically on C pentatonic.

. means than you kept it sounding
= means that have to play faster than usual (on the song of course)
^ = BEND IT
h = Hammer on
r = GO back to previus note

Intro (Cp)**|======| |=========|* |====| *  |========|
------------|------|-|---------|--|-8-13-13-11^-11^-11-----------------------|
----11-13.--11-----|-|----8----|--8------------------------------------------|
-12------------10-10-8h10------8.--------------------------------------------|
----------------------------10-----------------------------------------------|
-----------------------------------------------------------------------------|
-----------------------------------------------------------------------------|

*==========================| *===fast==| |==| |=======|*|====================|
8----|-|=======|-|=========|-|---------|-|--|-|-------|-|------11--------------|
--8-11-|-------|-|-------8-|-|---------|-|--|-|-------|-|-8h11----11-----------|
-------10^R-8-10-|--8h10---8-|---------|-|--|-|-------|-8------------10^R-10-8-|
-----------------10----------8h10p8----|-|--8-10^R-8-10------------------------|
------------------------------------10-8-10------------------------------------|
-------------------------------------------------------------------------------|

*|======|     *       |=========================*==|
-|-----13-13.-13------|-------------|-|------------|-------------------------|
-|--13------------11^-8h11-11-8-----|-|-------8----|-------------------------|
-12------------------------------8-10-|--8h10---8--|-------------------------|
--------------------------------------10----------10.------------------------|
-----------------------------------------------------------------------------|
-----------------------------------------------------------------------------|

 |=========| *        |====*           |======|*|=====================|
-|---------8/13-13-11-8----|-----------|--11--|-8---------------------|------|
-|-------9--------------8-11-11^R-11^R/13----13---11-8----------------|------|
-|--8-10-----------------------------------------------10^R-8-10-8----8------|
-10----------------------------------------------------------------10--------|
-----------------------------------------------------------------------------|
-----------------------------------------------------------------------------|

 |===fast==|*  |=======| *|==================|*|===| |============|
-|---------|---|---13^R^.-|--11-----|-|--11--|-|---|-|----8-------|----------|
-|---------|---|----------13----11-13-13----13-8--11-11^R---11-8-11----------|
-|---------|---12------------------------------------------------------------|
-8h10p8----|-----------------------------------------------------------------|
--------10-8-----------------------------------------------------------------|
-----------------------------------------------------------------------------|
 *============| |====| |=== fast ====| |====*=======|
-8----10-8----|-|----8-|-----|-|-----|-|------------|------------------------|
---11------11-8-|--8---11p8--|-11p8--|-|------------|------------------------|
----------------10----------10------10-10-8---------|------------------------|
--------------------------------------------10-8----|------------------------|
-------------------------------------------------10-8------------------------|
-----------------------------------------------------------------------------|
 |======| *        *===========BS===| * |=====| |=========|
-8-11^-11^-11^-11^-13p11----11-13^-11-8-|-----|-|---------|------------------|
-------------------------13-------------11p8--|-11p8------|------------------|
---------------------------------------------10------10^-10------------------|
-----------------------------------------------------------------------------|
-----------------------------------------------------------------------------|
-----------------------------------------------------------------------------|
 |====*==== fast ===============|  *  |======|
-|-------|-|----8-|-----|-------|-----|------|-------------------------------|
-|-------|-|--8---11-8--|-------|--11-|------|-------------------------------|
-|-------8-10----------10-10-8-10-----12-10h12-12----------------------------|
-|--8-10---------------------------------------------------------------------|
-10--------------------------------------------------------------------------|
-----------------------------------------------------------------------------|

Strofe1: (Cp)
 |===============| |===========| |==========|=|==========|
-|--------13-13-11-8--------11-8-8----------|-|----------|-------------------|
-|-----11------------8-11^R--------11-8-----|-|----10----|-------------------|
-10-12----------------------------------10-10-8-10-------8-------------------|
------------------------------------------------------10---------------------|
-----------------------------------------------------------------------------|
-----------------------------------------------------------------------------|

 |====================| |====|
-|--------13-13-11p8h11-8----|-----------------------------------------------|
-|-----11-----------------8-11-----------------------------------------------|
-10-12-----------------------------------------------------------------------|
-----------------------------------------------------------------------------|
-----------------------------------------------------------------------------|
-----------------------------------------------------------------------------|

SOLO 03:17 (Cp)
 |======|  |===============================|   |==|   |====================|
-|------|--8------------8------------------|-|-|-11^--|--11-13-14^R-13p11--|-|
-8h11-11^.---11p8-----8---11p8-8---------8-|-|-8------13------------------13-|
------------------10^------------10p8-10---8-|-------------------------------|
---------------------------------------------|-------------------------------|
---------------------------------------------|-------------------------------|
---------------------------------------------|-------------------------------|

 |======|      |====================| |=============|  |======| |=========|
-11-13-11------15-18-18^-18^-18p15--|-|-------------|--|------|-|---------|--|
-----------18^----------------------|-|-----18-18^-18^-18p16-18-|--16h18-16--|
-----------------------------------17-17h20---------------------17-----------|
-----------------------------------------------------------------------------|
-----------------------------------------------------------------------------|
-----------------------------------------------------------------------------|

 |=========|  |================| |=========| |=========| |======|
-|---------|--|----------------|-|---------|-|---------|-|------|------------|
-|-----13-16^-16^-16^-16^-16^-16-13--------|-|---------|-|------|------------|
-12-15------------------------------15p12-15-12--------|-|------|------------|
------------------------------------------------15p13-15-|-----13------------|
---------------------------------------------------------13h15----15---------|
-----------------------------------------------------------------------------|

 |======|                 |=============| |=============================|
-|------8-11^-11^-11p8h11-8-------------|-|-----8------|======|-|=======|----|
-|----9---------------------8-11^-11-8-11-|---8---11p8-|------|-|-------|----|
-8h10-------------------------------------10^----------10^-10p8-|--8h10-8----|
----------------------------------------------------------------10-----------|
-----------------------------------------------------------------------------|
-----------------------------------------------------------------------------|


einde solo 4:22 (Cp)
 |======| |===| |===|   |===| |===| |======|   |======| |======|
-|------|-|---|-|---|-|-|---|-|---|-|------|-|-|------|-|------|-------------|
-|--11-13-13-13-13-13-|-13-15-15-15-15p13-15-|-13-15-16-16-15-13-18^-18^-----|
-12-------------------|----------------------|-------------------------------|
----------------------|----------------------|-------------------------------|
----------------------|----------------------|-------------------------------|
----------------------|----------------------|-------------------------------|

 |========|
-|-------18^.----------------------------------------------------------------|
-18^R------------------------------------------------------------------------|
------17---------------------------------------------------------------------|
-----------------------------------------------------------------------------|
-----------------------------------------------------------------------------|
-----------------------------------------------------------------------------|


And the chords that appear at solo's end

Cm  Fm  Cm  Cm

Fm  Fm  Cm  Cm

G   G-F#-Fm-stop

Cm-A#-G#-hold

G   Cm
Добавлено: 11.05.2012
Другие материалы по этой песне:
  • Аккорды и текст

Страница создана 11.05.2012
http://primanota.ru/joe-bonamassa/reconsider-baby-chords.htm
Привет, Гость.
Предлагаем пройти революционный курс по гитаре.
Подарок от PrimaNota.Ru, забирай!