PrimaNota.ru - самый крупный в мире бесплатный архив песенных текстов, аккордов, табулатур и нот


Joe Bonamassa - India Mountain Time - таба, видео

Регистрация Запомнить меня
Войти через:  Facebook Google Twitter Vk Yandex Mail.ru

Joe Bonamassa - India Mountain Time - таба, видео

Печатать
Просмотров: 290
Уроки эстрадного вокала в Санкт-Петербурге
-------------------------------------------------------------------------------
                             India / Mountain Time - Joe Bonamassa
-------------------------------------------------------------------------------
Tabbed by:AndyT
Email: andrew@norvil.net

Tuning: STANDARD

note: (the Bm/G)  I can't find anything like that on all the chords tab but Bm/G is close enough
       D                    G                    C                   Bm/G 
e|----------------------------------------------------------------------------------|
B|-------3----3----3-----------3---3-3-------------3-3--3--------3-------3--3----3--|
G|------2--2----2----2--------0--0-----0----0-----0-0-0----0---0--0-----0-0----0----|
D|-----0----------0-----0-----------------0------------------2---------------0------|
A|---------------------------------------------023-------------------2--------------|
E|--------------------------3-------------------------------------------------------|
                                    (hammer on these) 

       D                    G                    C                   Bm/G 
e|----------------------------------------------------------------------------------|
B|-------3----3----3-----------3---3-3-------------3----3--------3-------3--3----3--|
G|------2--2----2----2--------0--0-----0----0-----0-0-0----0---0--0-----0-0----0----|
D|-3p2p0----------0-----0-----------------0----------2-------2---------------0------|
A|---------------------------------------------023-------------------2--------------|
E|--------------------------3-------------------------------------------------------|
                                       

D                        G
You drive West on 80 and it won't take too long,

C                                   Bm/G
‘Til the road starts climbing up to mountain time.

D                            G
There's a girl I know there, she lives free and easy,

C                                Bm/G
And she shows me wonders and she takes my mind.

D                            G
C                            Bm/G

D                            G
C                            Bm/G

D
And she's wild as eagles,

G
She's as sweet as honeysuckle,

C                         Bm/G
Her life's flowing like a mountain stream.

D
And she takes me somewhere,

G
And it's good to be there,

C                         Bm/G
And she pulls me into her bright golden wing.

D                            G
C                            Bm/G

D                            G
C                            Bm/G

D                         G
Now I hate the city and I love the country,

C                               Bm/G
And I love that feeling on that mountain high.

D                         G
And that girl is waiting, but she won't wait too long,

C                            Bm/G
So I drive all night to that clear blue sky.

D                            G
C                            Bm/G

D                            G
C                            Bm/G

D
And she's wild as eagles,

G
She's as sweet as honeysuckle,

C                         Bm/G
Her life's flowing like a mountain stream.

D
And she takes me somewhere,

G
And it's good to be there,

C                         Bm/G
And she pulls me into her bright golden wing.

D                            G
C                            Bm/G

D                            G
C                            Bm/G

D                                 C
I can feel it in the wind blow

                            D
I can feel love flow

                          C
And Ill be there when the morning comes, yeah.

D                            G
C                            Bm/G

D                            G
C                            Bm/G

(Lead Break)



D
Bright Golden Wing
Добавлено: 27.06.2012
Другие материалы по этой песне:

Страница создана 19.06.2012
http://primanota.ru/joe-bonamassa/india-mountain-time-chords.htm
Привет, Гость.
Предлагаем пройти революционный курс по гитаре.
Подарок от PrimaNota.Ru, забирай!