PrimaNota.ru - самый крупный в мире бесплатный архив песенных текстов, аккордов, табулатур и нот


Joe Bonamassa - A Place In My Heart - аккорды и текст, видео

Регистрация Запомнить меня
Войти через:  Facebook Google Twitter Vk Yandex Mail.ru

Joe Bonamassa - A Place In My Heart - аккорды и текст, видео

Печатать
Просмотров: 345
A Place In My Heart
Joe Bonamassa
Song:           A Place In My Heart
Artist:         Joe Bonamassa
Written By:     Bernie Marsden
Disc:           Driving Towards The Daylight (2012)
Tuning:         Standard
Tabbed By:      Glenn Listman (GlennWheezy)
                [http://www.YouTube.com/GlennWheezy]

Intro:  Am-E-Dm-Am     Am-E-Am-G-F

[Solo 1]

--------------------------------------------------------13----13----12-----|
------------------13----13----12----12--------12-13-15---------------------|
---------------------------------14----------------------------------------|
---------------------------------------------------------------------------|
----12-14-15---------------------------------------------------------------|
---------------------------------------------------------------------------|

--------20----20------------17--17-------17-\------------------------------|
----17---------------17------------------17-\------------------------------|
-----------------------------------------17-\------------------------------|
---------------------------------------------------------------------------|
---------------------------------------------------------------------------|
---------------------------------------------------------------------------|

Am
Sometimes I wonder what am I gonna do
Am
Sometimes I'm afraid now darling
E
I still look around for you
Am
No matter who you are
Dm
No matter what you do
Am                    E         Am     G     F
There's a place in my heart for you

Am
Here all alone
Am
Sitting here with my blues
Am
Alone cold and scared now baby
E
Whoa I've been missing you
Am
All the time I've been thinking
Dm
Everything we've been through
Am                    E         Am
There's a place in my heart for you

C                Bm
Yes and I wonder do you know how I feel baby
Bb
Believe me when I tell you now darling
F
This hurt is for real

C
Oh it's time for me to start over
Bm
Go and get something new
Bb
I'm so lost without you baby
F                    E
I don't know what to do

[Solo 1] x 2
[Solo 2 - Sorry, folks!  You're on your own with this.]

Am-E-Dm-Am   Am-E-Am-G-F
Am-E-Dm-Am   Am-E-Am-Am
Am-Am-Am-Am  Am-Am-E-E
Am-Am-Dm-Dm  Am-E-Am-E

Am
Sometimes I wonder what am I gonna do
Am
Sometimes I'm afraid now darling
E
I still look around for you
Am
No matter who you are
Dm
No matter what you do
Am                    E         Am       E
There's a place in my heart for you

[Solo 1]

Am-E-Dm-Am     Am-E-Am-G-F

Am [to end]

I've seen trouble come
All the tears I've cried
Trouble coming baby
But time's on my side
There's a place in my heart for you
Добавлено: 20.11.2013
Другие материалы по этой песне:
  • Аккорды и текст

Страница создана 20.11.2013
http://primanota.ru/joe-bonamassa/a-place-in-my-heart-chords.htm
Привет, Гость.
Предлагаем пройти революционный курс по гитаре.
Подарок от PrimaNota.Ru, забирай!