PrimaNota.ru - самый крупный в мире бесплатный архив песенных текстов, аккордов, табулатур и нот


Joddla Med Siv - Djuren I Buren - таба, видео

Регистрация Запомнить меня
Войти через:  Facebook Google Twitter Vk Yandex Mail.ru

Joddla Med Siv - Djuren I Buren - таба, видео

Печатать
Просмотров: 100
Уроки эстрадного вокала в Санкт-Петербурге
Djuren I Buren - Joddla med siv

Tabbed By Conny Lundquist

intro/vers

G        D   C       G         D   C
-------------------|--------------------|
-------------------|--------------------|
-------------------|--------------------|
-----------7--5-5--|-----------4--2-2---|
--2-2-2-2-5-5--3-3-|--2-2-2-2-5-5--3-3--|
-3-3-3-3-----------|-3-3-3-3------------|


Nuuu e de illa.....
-----------------------------------|
-----------------------------------|
-----------------------------------|
-------------------5-5-5-5-7-7-7-7-|
--2-2-2-2-5-5-5-5-3-3-3-3-5-5-5-5--|
-0-0-0-0-3-3-3-3-------------------|

stackars gorilla.....
-----------------------------------|
-----------------------------------|
-----------------------------------|
-------------------5-5-5-5-7-7-5-5-|
--2-2-2-2-5-5-5-5-3-3-3-3--5-5-3-3-|
-0-0-0-0-3-3-3-3-------------------|

Solo spela 2 ggr
----------------------------|--------------------------------|
----------------------------|--------------------------------|
----------------------------|--------------------------------|
-10-9-7-9------9-9----7-----|-10-10-10-9-9-10-12-10-9-7------|
----------10-5-----10---9-5-|---------------------------9-5--|
----------------------------|--------------------------------|

Em                            D
Tank om den vite mannen inte fanns
C                        G          D
Da skulle alla djungler haft en battre chans
Em                             D
Dom vite mannen bar sej at som svin
C                       G      D
Tog hela djungeln pa en dag me sin maskin
A                    Em
Vem ska nu mata alla djur ida'?
A                   D         C   D
Hemma e vite mannen fet o gla
Добавлено: 23.06.2012
Другие материалы по этой песне:
  • Аккорды и текст

Страница создана 23.06.2012
http://primanota.ru/joddla-med-siv/djuren-i-buren-chords.htm
Привет, Гость.
Предлагаем пройти революционный курс по гитаре.
Подарок от PrimaNota.Ru, забирай!