PrimaNota.ru - самый крупный в мире бесплатный архив песенных текстов, аккордов, табулатур и нот


Job For A Cowboy - What We Once Called Home - текст песни, таба, видео

Регистрация Запомнить меня
Войти через:  Facebook Google Twitter Vk Yandex Mail.ru

Job For A Cowboy - What We Once Called Home - текст песни, таба, видео

Печатать
Просмотров: 106
ITNRO
D---------------------------------------------------------------------------|
A---------------------------------------------------------------------------|
F---------------------------------------------------------------------------|
C-0-----------------0----------------0-------0~-----------------------------|
G-0-8-7-8-10-8-7-8--0-8-7-8-12-8-7-8-0-10-8--0~-----------------------------|
C-0-----------------0----------------0-------0~-----------------------------|
 PM*  tremolo      PM* temolo       PM* temolo ring

D----------------------------------------------------------------------x2---|
A---------------------------------------------------------------------------|
F---------------------------------------------------------------------------|
C---------------------------------------------------------------------------|
G-0-8-7-8-10-8-7-8----0-8-7-8-12-8-7-8-----0--10--0--8--0--7--0-5-3---------|
C---------------------------------------------------------------------------|
   tremolo picking
D---------------------------------------------------------------------------|
A---------------------------------------------------------------------------|
F---------------------------------------------------------------------------|
C-000-000-000-00------------------------------------------------------------|
G-000-000-000-00-5h7-4h5--------------9-10-12-10-9-10-----------------------|
C-000-000-000-00------------------------------------------------------------|
 Palm-muted tremolo (repeat as many times as necessary, on fourth one there is a pinch 
and I'm too lazy to find it or the bend just guess it)

CHORUS

D--------------------------------------------------------------------x2-----|
A---------------------------------------------------------------------------|
F-0-10-10-9-9-10/12-10-9-x2----6-7-9-x2-------------------------------------|
C---------------------------------------------------------------------------|
G----------------------------------------8-7-5--4-5-7-----------------------|
C---------------------------------------------------------------------------|
temolo picking                           Palm muted

D---------------------------------------------------------------------X2----|
A---------------------------------------------------------------------------|
F---------------------------------------------------------------------------|
C---------------------------------------------------------------------------|
G-0-88-77-8/10-8-7-X2-----5-7-8--X2----8-7-5--4-5-7-------------------------|
C---------------------------------------------------------------------------|
  temolo picking                       Palm muted-

D---------------------------------------------------------------------------|
A---------------------------------------------------------------------------|
F---------------------------------------------------------------------------|
C---------------------------------------------------------------------------|
G---8-10-12-14/-------------------------------------------------------------|
C---------------------------------------------------------------------------|
SECOND guitar does this during the second 0 8 7 8/10 87 thing

D = downstroke  U =Upstroke

OUTRO/END OF CHORUS THING
D---------------------------------------------------------------------------|
A---------------------------------------------------------------------------|
F---------------------x7----------------------------------------------------|
C-00-00-00-00--0-0-0-------00-00--3-2-1-2-1-0-------------------------------|
G-00-00-00-00--0-0-0-------00-00--3-2-1-2-1-0-------------------------------|
C-00-00-00-00--0-0-0-------00-00--3-2-1-2-1-0-------------------------------|
  DD DD DD DU  D D D     Palm muted
  palm muted


D---------------------------------------------------------------------------|
A---------------------------------------------------------------------------|
F---------------------------------------------------------------------------|
C-000-------000-------000----------000----------000-------000---------------|
G-000-5-5/8-000-5-5/8-000-10-10/8--000-12-12/10-000-5-5/8-000-5-5/8--10-5-8-|
C-000-------000-------000----------000----------000-------000---------------|
                                                                     tremolo

D---------------------------------------------------------------------------|
A---------------------------------------------------------------------------|
F---------------------------------------------------------------------------|
C--00-00--------------------------------------------------------------------|
G--00-00----------cool bass part <33----------------------------------------|
C--00-00--------------------------------------------------------------------|
   Palm muted
~ = ring
D---------------------------------------------------------------------------|
A---------------------------------------------------------------------------|
F---------------------------------------------------------------------------|
C-5-3-2--2/3-0~-----000-000-000-000--5-3-2--2/3-0~--------------------------|
G-5-3-2--2/3-0~-----000-000-000-000--5-3-2--2/3-0~--------------------------|
C-5-3-2--2/3-0~-----000-000-000-000--5-3-2--2/3-0~--------------------------|
                   palm muted                    tremolo          Palm muted
D---------------------------------------------------------------------------|
A---------------------------------------------------------------------------|
F---------------------------------------------------------------------------|
C-------------------x2--5-3-2-3---------------------------------------------|
G---11--5---11-13-5-----5-3-2-3---------------------------------------------|
C-----------------------5-3-2-3---------------------------------------------|
   tremolo
while the other guitar just does this
D---------------------------------------------------------------------------|
A---------------------------------------------------------------------------|
F---------------------------------------------------------------------------|
C-000-000-000-000-000-000-000-000-000-000-000-000-000-000-000-000-----------|
G-000-000-000-000-000-000-000-000-000-000-000-000-000-000-000-000-----------|
C-000-000-000-000-000-000-000-000-000-000-000-000-000-000-000-000-----------|

D---------------------------------------------------------------------------|
A---------------------------------------------------------------------------|
F---------------------------------------------------------------------------|
C-0000-0000-0000--3-0-1~-x7--0000-0000--------------------------------------|
G-0000-0000-0000--3-0-1~-----0000-0000------9-10-12-10-9-10-----------------|
C-0000-0000-0000--3-0-1~-----0000-0000--------------------------------------|
  palm muted


CHORUS


D---------------------------------------------------------------------------|
A---------------------------------------------------------------------------|
F-----------------------------x6--------------------------------------------|
C-000-------000-------000---------------------------------------------------|
G-000-5-5/7-000-5-5/7-000-5/4-----------------------------------------------|
C-000-------000-------000---------------------------------------------------|

D---------------------------------------------------------------------------|
A---------------------------------------------------------------------------|
F-----------------------X3--------------------------------------------------|
C-000-00--000-00-----------000-00---000-00-?*-------------------------------|
G-000-00--000-00--5-5/7----000-00---000-00----------------------------------|
C-000-00--000-00-----------000-00---000-00----------------------------------|

D-----------------------------------------------------------------------x2--|
A---------------------------------------------------------------------------|
F--------------------x3-----------------------------------------------------|
C-000-00--000-00--00-------000-00--000-00--00--?*---------------------------|
G-000-00--000-00--00-------000-00--000-00--00-------------------------------|
C-000-00--000-00--00-------000-00--000-00--00-------------------------------|


OUTRO/END OF CHORUS THING after sliding up the top 3 string and gradually slow down

I know it's not perfect I just put what I know.It sounds ok to me
myspace.com/dgafalex   AIM=shootalexxcore
Добавлено: 23.07.2012
Другие материалы по этой песне:

Страница создана 15.06.2012
http://primanota.ru/job-for-a-cowboy/what-we-once-called-home-chords.htm
Привет, Гость.
Предлагаем пройти революционный курс по гитаре.
Подарок от PrimaNota.Ru, забирай!