PrimaNota.ru - самый крупный в мире бесплатный архив песенных текстов, аккордов, табулатур и нот


Job For A Cowboy - Rising Tide - текст песни, таба, бас-таба, видео

Регистрация Запомнить меня
Войти через:  Facebook Google Twitter Vk Yandex Mail.ru

Job For A Cowboy - Rising Tide - текст песни, таба, бас-таба, видео

Печатать
Просмотров: 198
Dropped C:   C G C F A D



     |-3-| |-3-| |-3-| |-3-| |-3-| |-3-| |-3-| |-3-|  
     S S S S S S S S S S S S S S S S S S S S S S S S  
D||--------------------------------------------------|
A||--------------------------------------------------|
F||--------------------------------------------------|
C||--------------------------------------------------|
G||--------------------------------------------------|
C||--0-0-0-5-5-5-0-0-0-5-5-5-0-0-0-5-5-5-8-8-8-4-4-4-|


  |-3-| |-3-| |-3-| |-3-| |-3-| |-3-| |-3-| |-3-|  
  S S S S S S S S S S S S S S S S S S S S S S S S  
--------------------------------------------------|
--------------------------------------------------|
--------------------------------------------------|
--------------------------------------------------|
--------------------------------------------------|
--0-0-0-5-5-5-0-0-0-5-5-5-0-0-0-5-5-5-8-8-8-4-4-4-|


  |-3-| |-3-| |-3-| |-3-| |-3-| |-3-| |-3-| |-3-|  
  S S S S S S S S S S S S S S S S S S S S S S S S  
--------------------------------------------------|
--------------------------------------------------|
--------------------------------------------------|
--------------------------------------------------|
--------------------------------------------------|
--0-0-0-5-5-5-0-0-0-5-5-5-0-0-0-5-5-5-8-8-8-4-4-4-|


  |-3-| |-3-| |-3-| |-3-| |-3-|    |-3-|     
  S S S S S S S S S S S S S S S E  S S S E   
--------------------------------------------|
--------------------------------------------|
--------------------------------------------|
--------------------------------------------|
--------------------------------5--------4--|
--0-0-0-5-5-5-0-0-0-5-5-5-0-0-0----0-0-0----|


  |-3-| |-3-| |-3-| |-3-| |-3-| |-3-| |-3-| |-3-|  
  S S S S S S S S S S S S S S S S S S S S S S S S  
--------------------------------------------------|
--------------------------------------------------|
--------------------------------------------------|
--------------------------------------------------|
--0-0-0-5-5-5-0-0-0-5-5-5-0-0-0-5-5-5-8-8-8-4-4-4-|
--------------------------------------------------|


  |-3-| |-3-| |-3-| |-3-| |-3-| |-3-| |-3-| |-3-|  
  S S S S S S S S S S S S S S S S S S S S S S S S  
--------------------------------------------------|
--------------------------------------------------|
--------------------------------------------------|
--------------------------------------------------|
--0-0-0-5-5-5-0-0-0-5-5-5-0-0-0-5-5-5-8-8-8-4-4-4-|
--------------------------------------------------|


  |-3-| |-3-| |-3-| |-3-| |-3-| |-3-| |-3-| |-3-|  
  S S S S S S S S S S S S S S S S S S S S S S S S  
--------------------------------------------------|
--------------------------------------------------|
--------------------------------------------------|
--------------------------------------------------|
--0-0-0-5-5-5-0-0-0-5-5-5-0-0-0-5-5-5-8-8-8-4-4-4-|
--------------------------------------------------|


                                               PM       PM          
  |-3-| |-3-| |-3-| |-3-|                                           
  S S S S S S S S S S S S S S S S S S S S    S H        Q    S S S  
------------------------------------------|------------------------|
------------------------------------------|------------------------|
------------------------------------------|------------------------|
------------------------------------------|------------------------|
--0-0-0-5-5-5-0-0-0-5-5-5-5-8-5-4-7-4-1-4-|--1-0--------4----------|
------------------------------------------|----0--------4----L-L-L-|


  PM       PM                                                                
  H        H           H        H           S S S S S S S S S S S S S S S S  
--------------------|--------------------|----------------------------------|
--------------------|--------------------|----------------------------------|
--------------------|--------------------|----------------------------------|
--------------------|--------------------|----------------------------------|
--1--------0--------|--L--------L--------|----------5-5---------5-5---------|
--1--------0--------|--------------------|--8-8-7-7-----8-8-7-7-----7-7-6-6-|


  S S S S S S S S S S S S S S S S    S S S S S S S S S S S S S S S S  
----------------------------------|----------------------------------|
----------------------------------|----------------------------------|
----------------------------------|----------------------------------|
----------------------------------|----------------------------------|
--4-4---------4-4---------5-5-----|------5-5---------4-4---------4-4-|
------7-7-6-6-----8-8-7-7-----8-8-|--7-7-----7-7-6-6-----7-7-6-6-----|


  S S S S S S  S  S  S  S S S S S S S    S S S S  S  S S S S S S S S S S S  
--------------------------------------|------------------------------------|
--------------------------------------|------------------------------------|
--------------------------------------|------------------------------------|
--------------------------------------|------------------------------------|
----------5-5-12-12-10-10-8-8-7-7-----|------4-4-10-10-8-8-7-7-6-6---------|
--8-8-7-7-------------------------7-7-|--6-6-----------------------8-8-7-7-|


  S S  S  S  S  S S S S S S S S S S S     S  S S S S S S S S S S S S S S S  
--------------------------------------|------------------------------------|
--------------------------------------|------------------------------------|
--------------------------------------|------------------------------------|
--------------------------------------|------------------------------------|
--5-5-12-12-10-10-8-8-7-7---------4-4-|--10-10-8-8-7-7-6-6-----------------|
--------------------------7-7-6-6-----|--------------------5-5-5-8-8-8-4-4-|


  S S S S S S S S S S S S S S S S    S S S S S S S S S S S S S S S S  
----------------------------------|----------------------------------|
----------------------------------|----------------------------------|
----------------------------------|----------------------------------|
----------------------------------|----------------------------------|
----------------------------------|----------------------------------|
--4-4-4-4-4-5-5-5-8-8-8-4-4-4-4-4-|--5-5-5-8-8-8-4-4-4-4-4-4-5-5-5-8-|


  S S S S S S S S S S S S S S S S        
----------------------------------|----||
----------------------------------|----||
----------------------------------|----||
----------------------------------|----||
----------------------------------|----||
--8-8-4---------------------------|----||




Duration Legend
---------------
W - whole
H - half
Q - quarter
E - 8th
S - 16th
T - 32nd
X - 64th
. - note dotted
|-n-|  - n-tuplets


Tablature Legend
----------------
L - tied note
x - dead note
g - grace note
(n) - ghost note
> - accentuded note
NH - natural harmonic
AH - artificial harmonic
TH - tapped harmonic
SH - semi harmonic
PH - pitch harmonic
h - hammer on
p - pull off
b - bend
br - bendRelease
pb - preBend
pbr - preBendRelease
brb - bendReleaseBend
\n/ - tremolo bar dip
\n - tremolo bar dive
-/n - tremolo bar Release up
/n\ - tremolo bar inverted dip
/n - tremolo bar return
-\n - tremolo bar Release down
S - shift slide
s - legato slide
/ -  slide into from below or out of upwards
\ -  slide into from above or out of downwards
~ - vibrato
W - wide vibrato
tr - trill
TP - tremolo picking
T - tapping
S - slap
P - pop
< - fade in
^ - brush up
v - brush down
Добавлено: 17.07.2012
Другие материалы по этой песне:

Страница создана 02.04.2012
http://primanota.ru/job-for-a-cowboy/the-rising-tide-chords.htm
Привет, Гость.
Предлагаем пройти революционный курс по гитаре.
Подарок от PrimaNota.Ru, забирай!