PrimaNota.ru - самый крупный в мире бесплатный архив песенных текстов, аккордов, табулатур и нот


Job For A Cowboy - The Divine Falsehood - текст песни, таба, видео

Регистрация Запомнить меня
Войти через:  Facebook Google Twitter Vk Yandex Mail.ru

Job For A Cowboy - The Divine Falsehood - текст песни, таба, видео

Печатать
Просмотров: 162
Уроки эстрадного вокала в Санкт-Петербурге
As recorded by Job For A Cowboy
                            (From the 2007 Album GENESIS)

Words and Music by Job For A Cowboy
Arranged by Job For A Cowboy
Transcribed by Casey S. from Dallas

Tuning: (B Gb B E Ab Db) Drop B


Tablature Legend
----------------
 h   - hammer-on
 p   - pull-off
 b   - bend
 pb  - pre-bend
 r   - bend release (if no number after the r, then release immediately)
 /\  - slide into or out of (from/to "nowhere")
 s   - legato slide
 S   - shift slide
  - natural harmonic
[n]  - artificial harmonic
n(n) - tapped harmonic
 ~   - vibrato
 tr  - trill
 T   - tap
 TP  - trem. picking
 .   - palm muting
 x   - mute
\n/  - tremolo bar dip; n = amount to dip
 \n  - tremolo bar down
 n/  - tremolo bar up
/n\  - tremolo bar inverted dip
 =   - hold bend; also acts as connecting device for hammers/pulls
 <>  - volume swell (louder/softer)




I believe this is 100% correct, 95% at least.




Intro 

|---------------------------------------------------------------|
|---------------------------------------------------------------|
|---------9----8----6---6-8-6--3----5-3-2-----------------------|
|-0-------x----x----x---x-x-x--x----x-x-x(5)---------3----------|
|-0-------7----6----4---4-6-4--1----3-1-0(x)---------x----------|
|-0--------------------------------------(5)----000--3----------|
                                                ...


Riff 1

|-----------------------------------------------------------------------|
|-----------------------------------------------------------------------|
|-----14-13-14----13-11-13----------------------------------------------|
|-0---x--x--x-----x--x--x--------------------------3--------3-----------|
|-0---12-11-12----11-9--11-------------------------x-----(0)-(0)----5---|
|-0---------------------------8-10-8-7-8-(8)--000--3----3-------0-3-----|
                                              ...       . .     . .


Riff 2

|-----------------------------------------------------------------------|
|-----------------------------------------------------------------------|
|-7-7-7-6-6-6-7-7-11-11-11-10-10-10-7-7-6-6-6-6-6-6-6-6-6\4-4-4-4-4-4-4-|
|-x-x-x-x-x-x-x-x-x--x--x--x--x--x--x-x-x-x-x-x-x-x-x-x-x\x-x-x-x-x-x-x-|
|-5-5-5-4-4-4-5-5-9--9--9--8--8--8--5-5-4-4-4-4-4-4-4-4-4\2-2-2-2-2-2-2-|
|-----------------------------------------------------------------------|

|-----------------------------------------------------------------------------------------|
|-----------------------------------------------------------------------------------------|
|-7-7-7-6-6-6-7-7-10-10-10-11-11-11-13-13-14-14-14-13-13-13-11-11-13-13-13-13-13-13-13-13-|
|-x-x-x-x-x-x-x-x-x--x--x--x--x--x--x--x--x--x--x--x--x--x--x--x--x--x--x--x--x--x--x--x--|
|-5-5-5-4-4-4-5-5-8--8--8--9--9--9--11-11-12-12-12-11-11-11-9--9--11-11-11-11-11-11-11-11-|
|-----------------------------------------------------------------------------------------|



Riff 3

|-----------------------------------------------------------------------|
|-----------------------------------------------------------------------|
|-----------------------------------------------------------------------|
|-0----8-7-8----7-5-7---------------------------------------------------|
|-0----x-x-x----x-x-x-----------------7-7-7-7-7-7-8-8-8-8-8-8-8-8-8-8---|
|-0----8-7-8----7-5-7--------8-10-8-7-8-8-8-8-8-8-8-8-8-8-8-8-8-8-8-8---|



Riff 4

|-----------------------------------------------------------------------|
|-----------------------------------------------------------------------|
|-----------------------------------------------------------------------|
|-----------------------------------------------------------------------|
|--------------------------1---1-0-0-0-0-0-0-0-0-0-0-0-0-0-0-0-0--------|
|1-1-1-1-1-1-4-4-4-3-3-3-3---3---0-0-0---0---0-0-0-0-0---0---0-0--------|
                                 . . .   .   . . . . .   .   . .

Добавлено: 24.05.2012
Другие материалы по этой песне:

Страница создана 22.02.2012
http://primanota.ru/job-for-a-cowboy/the-divine-falsehood-chords.htm
Привет, Гость.
Предлагаем пройти революционный курс по гитаре.
Подарок от PrimaNota.Ru, забирай!