PrimaNota.ru - самый крупный в мире бесплатный архив песенных текстов, аккордов, табулатур и нот


Job For A Cowboy - Suspended By The Throat - текст песни, таба, бас-таба, видео

Регистрация Запомнить меня
Войти через:  Facebook Google Twitter Vk Yandex Mail.ru

Job For A Cowboy - Suspended By The Throat - текст песни, таба, бас-таба, видео

Печатать
Просмотров: 173
jordan palmer
suspended by the throat
job for a cowboy
doom

--drop c.

|------------------------------------|
|------------------------------------|
|------------------------------------|
|-0-----7-8-0----------7ph-----------|
|-0---5-----0-7h8p7-4----------------|
|-0---------0------------------------|

|------------------------------------|
|------------------------------------|
|------------------------------------|
|-0-----7-8--------------------------|
|-0---5------------------------------|
|-0----------5-7-8-7-5-4-7-5-4-3-----|
             ...................

|--------------------------------------------|
|--------------------------------------------|
|--------------------------------------------|
|-0------------------------------------------|
|-0-------------------3-3-3--------3-3-3-----|
|-0--000000000--2-2-2--------2-2-2-----------|


|----------------------------------------------------|
|----------------------------------------------------|
|----------------------------------------------------|
|----------------------------------------------------|
|----------------------------------3-2-1-3-2-1-------|
|-333333333-6666-5555-2222222222---3-2-1-3-2-1-------|
                                   ............

|-----------|
|-----------|
|-----------|
|-----------|
|-----------|
|-3-6-5-2---|


--some fast solo thing lalala --


|--------------------------------------------------|
|--------------------------------------------------|
|--------------------------------------------------|
|-0------------------------------------------------|
|-0--000-0-0-0--000-0-0--------3-3-3-------3-3-3---|
|-0--000-0-0-0--000-0-0--2-2-2-------2-2-2---------|

|-----------------------|
|-----------------------|
|-----------------------|
|-----------------------|
|-----5h7-4h5-5h7p5-----|
|-000-------------------|


|----------------------------------------------------|
|----------------------------------------------------|
|----------------------------------------------------|
|----------------------------------------------------|
|-----5h7--4h5--5h7p5--8h10p8--7h8p7--5h7p5--4ph-----|
|-000------------------------------------------------|


|-----------------------------------------------|
|-----------------------------------------------|
|-----------------------------------------------|
|----------------------------7ph----------------|
|-----5h8--4h7--1h4p1-----------------4h5p4-----|
|-000-------------------000------000------------|

|--------------------------|
|--------------------------|
|--------------------------|
|---------5ph--------------|
|------------------4h5p4---|
|----000------000----------|


|-------------------------------------------------------|
|-------------------------------------------------------|
|-------------------------------------------------------|
|-------------------------------------------------------|
|----------------------5p0--8p0--7p0--10p0--8p0--7p0----|
|-00-00000000000000-------------------------------------|


|------------------------------------------------------|
|------------------------------------------------------|
|------------------------------------------------------|
|------------------------------------------------7ph---|
|-----------------------------------------5-7-8--------|
|-00-00000000000000----5-7-8--8-10-11------------------|
                       


|----------------------------------------------------------------------|
|----------------------------------------------------------------------|
|----------------------------------------------------------------------|
|---------7ph--------7ph-----------------------------------------------|
|--6h7p6------6h7p6-------------------------10-------------------11----|
|---------------------------0-0-0-10h12p10------0-0-0-11h13p11---------|


|------------------------------------------------------------|
|------------------------------------------------------------|
|------------------------------------------------------------|
|------------------------------------------------------------|
|--------------------10------------10-10-10-------8-8-8------|
|--0-0-0-10h12p10------------8-8-8-----------7-7-7-----------|




|-----------------------------------------------|
|-----------------------------------------------|
|-----------------------------------------------|
|-----------------------------------------------|
|----------------------10-10-10-------8-8-8-----|
|--0-0-000-00----8-8-8-----------7-7-7----------|



|--------------------------------------------------------------------|
|--------------------------------------------------------------------|
|--------------------------------------------------------------------|
|--------------------------------------------------------------------|
|--------10-10-10---------8-8-8---------10-10-10-------8-8-8---0-----|
|-8-8-8-----------7-7-7----------8-8-8-----------7-7-7---------0-----|


|-----------------------------------------------|
|-----------------------------------------------|
|-----------------------------------------------|
|-----------------------------------------------|
|----8-7-8-----10-8-10-----8-7-8-10-8-7---------|
|--0---------0----------0-----------------------|



|--------|
|--------|
|--------|
|--------|
|--0-0---|
|--0-0---|

there are a few notes through out the song that are off but hey its by ear ;)
Добавлено: 25.04.2012
Другие материалы по этой песне:

Страница создана 11.03.2012
http://primanota.ru/job-for-a-cowboy/suspended-by-the-throat-chords.htm
Привет, Гость.
Предлагаем пройти революционный курс по гитаре.
Подарок от PrimaNota.Ru, забирай!