PrimaNota.ru - самый крупный в мире бесплатный архив песенных текстов, аккордов, табулатур и нот


Job For A Cowboy - Sun Of Nihility - бас-таба, видео

Регистрация Запомнить меня
Войти через:  Facebook Google Twitter Vk Yandex Mail.ru

Job For A Cowboy - Sun Of Nihility - бас-таба, видео

Печатать
Просмотров: 102
Уроки эстрадного вокала в Санкт-Петербурге
-------------------------------------------------------------------------------
                             Job For A Cowboy - Sun Of Nihility
-------------------------------------------------------------------------------
Tabbed by: warnickbass

Tuning (from high to low): FCGDA

~ = let ring
b = bend
t = tap
h = hammer on
p = pull off
/ = slide up
\ = slide down
() = repeat note
[] = repeat pattern

F----------------------------------------------------------------------------9/-10\-9------------------
C----------------------------------------------------------------------------9/-10\-9------------------
G------------7--------------------------------------7-7-----7-7---------7---------------7~\------------
D--1~--0~--8---8-7-7b-4~----------4-1-0~--0-0-0-0-0-----0-0-----0-7-7-8---8-----------0----------------
A------------------------3-3--3-3----------------------------------------------------------------------

F------------------------------------------------------------------------------------------------------
C------------------------------------------------------------------------------------------------------
G----7------------------3-2---------------------------7------------------------------------------------
D--8---8-7-7b-4~--0-3-4-----1-3--4-1-0~--0(x11)-7-7-8---8----------------------------------------------
A------------------------------------------------------------------------------------------------------

F------------------------------------------------------------------------------------------------------
C------3---------------------------------------------------------------------------------7-9-----------
G--------------7---------------------------------------7-7-----7-7---------7-------8/-10---------------
D--1-1---0~--8---8-7-7b-4~-----------4-1-0~--0-0-0-0-0-----0-0-----0-7-7-8---8---8---------------------
A--------------------------3-3---3-3-------------------------------------------6----------------5~\----

F-----9------------------------------------------------------------------------------------------------
C--10---10-9-9b-6~-----------------6-5-----------------------------------------------------------------
G------------------------3-2-----------8-7~\--7(x11)-------7-------------------------------------------
D------------------0-3-4-----1-3-4-------------------7-7-8---8-----------------------------------------
A------------------------------------------------------------------------------------------------------

F------------------------------------------------------------------------------------------------------
C------3----9~\--------------------------------6-5-----------------------------------------------------
G-----------------7------------------3-2----------------7-7-7-----------------------7------------------
D--1-1---0~-----8---8-7-7b-4~--0-3-4-----1-3-4-----1-0~-------8-8-8-7-7-7-7-7-8-7-8---8----------------
A------------------------------------------------------------------------------------------------------

F---------------------------9--------------------------------------------------------------------------
C------------7-9----9~\--10---10-9-9b-6~--------------------6-5----------------------------------------
G------8/-10--------7~\------------------------3-2---------------8-7~----------------------------------
D----8-----------0~----------------------0-3-4-------1-3-4--------------0------------------------------
A--6---------------------------------------------------------------------------------------------------

F--------------------------------------------------------------------[x2]------------------------------
C--------------------------------------------------------------------[x2]------------------------------
G--------------------------------------------------------------------[x2]------------------------------
D--0-0--0--0-1~---0-0--0--0-1~------------5~---5--4--1-0~------------[x2]---------------0--0--0--------
A-------------------------------0-0--0--0----------------------------[x2]------------------------------

**tap all notes here**
F--13----------13---13--------13-----------------------------------------------------------------------
C-----15-12-------15---15-12-----15---9--------9---9---------9------12---------12----12----------12----
G-----------14--------------14----------11-8-----11--11-8------11------14-11------14----14-11-------14-
D--------------------------------------------10-----------10-----------------13---------------13-------
A------------------------------------------------------------------------------------------------------

F--------------------------------------------------------------------[x2]------------------------------
C-----------------------------------------------------------8--------[x2]------------------------------
G--------7-8---8~-----------------------------------------7---7------[x2]------------------------------
D--0(x6)-----0----0-0-0-0-4-4-4-4-3-3-3-3--4(x16)-3(x8)-6------------[x2]------------------------------
A--------------------------------------------------------------------[x2]------------------------------

F------------------------------------------------------------------------------------------------------
C-----------------------------------------------------------8-5----------------------------------------
G--------7-8---8~-----------------------------------------7--------------------------------------------
D--0(x6)-----0----0-0-0-0-4-4-4-4-3-3-3-3--4(x16)-3(x8)-6----------------------------------------------
A------------------------------------------------------------------------------------------------------

F------------------------------------------------------------------------------------------------------
C------------------------------------------------------------------------------------------------------
G--------7-8---8~--------------------------------------------------------------------------------------
D--0(x6)-----0----0-0-0-0-4-4-4-4-3-3-3-3--4(x16)-3(x8)-7~\--------------------------------------------
A------------------------------------------------------------------------------------------------------

                   t t t t t t t t
F------------------------------------------------------------------------------------------------------
C-----------------------------------------------6-----------------------------------9~-----------------
G--------------------------8-5------------7-8-----7~--------------------------7-8---8~-----------------
D--0(x6)-0-1-0-1~--7-4---------7-4--0(x6)-----0-------000---0000-0000---0(x6)-----0-----9\-------------
A----------------------6-3-----------------------------------------------------------------------------

F------------------------------------------------------------------------------------------------------
C------------------------------------------------------------------------------------------------------
G--------7-8---8-7~---8-7------7-----------------------------------------------------------------------
D--0(x6)-----0------------10-8---10-8-7-10-8-7---------------------------------------------------------
A----------------------------------------------9-------------------------------------------------------

F------9--------------------9h10p9-7------------9------------------------------------------------------
C----8-------------------------------10-9-----8---------------------------------9----------------------
G---------8/-7/-8---8/-7/-8------------------------8/-7/-8--------7-----------9------------------------
D--0---------------------------------------0----------------7-8-7---10-8-7--7-----2/-5-----------------
A------------------------------------------------------------------------------------------------------

F------------------------------------------------------------------------------------------------------
C------7----------7-6----------------------------------------------------------------------------------
G----7---7---5/-8--------------------------------------------------------------------------------------
D--5-------5----------1-0(x20)-------------------------------------------------------------------------
A------------------------------------------------------------------------------------------------------

F------------------------------------------------------------------------------------------------------
C------3----9~\---------------------------------6-5----------------------------------------------------
G------------------7------------------3-2-----------------7-7-7-----------------------7----------------
D--1-1---0~------8---8-7-7b-4~--0-3-4-----1-3-4-----1-0~--------8-8-8-7-7-7-7-7-8-7-8---8--------------
A------------------------------------------------------------------------------------------------------

F-----------------------------9------------------------------------------------------------------------
C------------7-9-----9~\---10---10-9-9b-6~-----------------6-5-----------------------------------------
G------8/-10---------7~\-------------------------3-2-----------8-7~------------------------------------
D----8-----------0~------------------------0-3-4-----1-3-4----------0----------------------------------
A--6---------------------------------------------------------------------------------------------------

F------------------------------------------------------------------------------------------------------
C------------88---------88---------88--------88---------88-----------88-----------88-------------------
G---------88---------88---------88--------88---------88-----------88-----------88----------88----------
D--666666-------6666-------6666------6666-------6666---------6666---------6666--------6666-------------
A------------------------------------------------------------------------------------------------------

F------------------------------------------------------------------------------------------------------
C------------------------------------------------------------------------------------------------------
G------9---7-------------9----7-------------9---7-------------9---7------------------------------------
D--0-7---7---7-0-7---0-7---7----7-0-7-----7---7---7-0-7-----7---7---7-0-7------------------------------
A---------------------------------------4-----------------4--------------------------------------------

F------------------------------------------------------------------------------------------------------
C------------------------------------------------------------------------------------------------------
G-------------9---10---9--------9---10---9---------9---10---9---------9---10---9-----------------------
D---------0-7---7----7---7--0-7---7----7---7-----7---7----7---7-----7---7----7---7---------------------
A--1(x32)--------------------------------------4------------------4------------------------------------

F------------------------------------------------------------------------6-----------------------------
C--------------------------------------------------------------------7-----5---------------------------
G--4~-3~--------4~-6~------------------------4--4(x8)-4-3--3(x6)---3---3-----4-------------------------
D--------5~-4~--------5~----4---4-4---4-4-4----------------------4-------------3-----------------------
A------------------------------------------------------------------------------------------------------

F------------------------------------------------------------------------------------------------------
C---------------------------------------------------7--------------------------------------------------
G-----------------2---4-5---4--4(x8)-4-3--3(x6)---3---3------------2---4-------------------------------
D---------------1---1---------------------------4--------4-3-0-1-0---0---0-4-3-------------------------
A--0-2-3-2--0-2----------------------------------------------------------------0-4-3-0-1~--------------

F---------------------6--------------------------------------------------------------------------------
C-----------------7-----5-------------------------------------------------------7----------------------
G--4-3--3(x6)---3---3-----4------------------2---4-5---4--4 (x8)-4-3--3(x6)---3---3--------------------
D-------------4-------------3--------------1---1----------------------------4--------------------------
A-----------------------------0-2-3-2--0-2-------------------------------------------------------------

F------------------------------------------------------------------------------------------------------
C------------------------------------------------------------------------------------------------------
G------------2---4-------------------------------------------------------------------------------------
D--4-3-0-1-0---0---0-4-3-------------------------------------------------------------------------------
A------------------------0-4-3-0-1---------------------------------------------------------------------

F------------------------------------------------------------------------------------------------------
C------------------------------------------------------------------------------------------------------
G------------7---------------------------------------7-7-----7-7---------7-----------------------------
D--1~--0~--8---8-7-7b-4~------------4-1-0~---0-0-0-0-----0-0-----0-7-7-8---8---------------------------
A------------------------3-3---3-3---------------------------------------------------------------------

F------------------------------------------------------------------------------------------------------
C------3----9~\---------------------------------6-5----------------------------------------------------
G------------------7------------------3-2-----------------7-7-7-----------------------7----------------
D--1-1---0~------8---8-7-7b-4~--0-3-4-----1-3-4-----1-0~--------8-8-8-7-7-7-7-7-8-7-8---8--------------
A------------------------------------------------------------------------------------------------------

F-----------------------------9-------------------------------10-9~------------------------------------
C-------------7-9-----9~\--10---10-9-9b-6~-----------------3-------------------------------------------
G-------8/-10---------7~\------------------------3-2---------------------------------------------------
D----8------------0~-----------------------0-3-4-----1-3-4---------------------------------------------
A--6---------------------------------------------------------------------------------------------------

F--9-9-9-----------------------------9-----------------------------------------------------------------
C---------10-10-10-9-9-9-9-9-10-9-10---10--------------------------------------------------------------
G------------------------------------------------------------------------------------------------------
D------------------------------------------------------------------------------------------------------
A------------------------------------------------------------------------------------------------------

F--------------------------------------------------------------------[x2]------------------------------
C--------------------------------------------------------------------[x2]------------------------------
G--------------------------------------------------------------------[x2]------------------------------
D--0-0--0--0-1~---0-0--0--0-1~------------5~---5--4--1-0~------------[x2]------------------------------
A-------------------------------0-0--0--0----------------------------[x2]------------------------------

F----------------4-----4-------------------------------------------------------------------------------
C------------------3-3---------------------------------------------------------------------------------
G-----------------------------------------2---3---2----------------------------------------------------
D--0-0--0--0-1~-----------0-0--0--0-1~--1---1---1---1------------5~---5--4--1-0~-----------------------
A------------------------------------------------------0-0--0--0---------------------------------------

                 t  t  t                t   t   t   t  t  t  t  t
F----------------16----16---------------16/-17\-16--14-13----------------------------------------------
C-------------------15------------------------------------15-12----------------------------------------
G---------------------------------------------------------------15-------------------------------------
D--0-0--0--0-1~------------0-0--0--0-1~---------------------------------------5~---5--4--1-0~----------
A-------------------------------------------------------------------0-0--0--0--------------------------
Добавлено: 26.07.2015
Другие материалы по этой песне:

Страница создана 26.07.2015
http://primanota.ru/job-for-a-cowboy/sun-of-nihility-chords.htm
Привет, Гость.
Предлагаем пройти революционный курс по гитаре.
Подарок от PrimaNota.Ru, забирай!