PrimaNota.ru - самый крупный в мире бесплатный архив песенных текстов, аккордов, табулатур и нот


Job For A Cowboy - Relinquished - текст песни, таба, бас-таба, видео

Регистрация Запомнить меня
Войти через:  Facebook Google Twitter Vk Yandex Mail.ru

Job For A Cowboy - Relinquished - текст песни, таба, бас-таба, видео

Печатать
Просмотров: 133
As recorded by Job For A Cowboy
                           (From the 2005 Album DOOM)

Words and Music by Job For A Cowboy
Transcribed by jonathan rose

Gtr I (C G C F A D) - 'Left'
Gtr II (C G C F A D) - 'Right'
Gtr III (C G C F A D) - 'Gtr III'

 Intro                                      "Her mouth stands to.."
  Q=95
  N.C.D5                   Eb5               D5                        Eb5
 3/4                                        4/4
  Gtr I
      PM-----------------------------------------------|   PM--------------------|
  Q   T T S T T S Q    Q   T T S T T S Q     T T S T T S E T T S T T S T T S T T S E
|--------------------|--------------------||-----------------------------------------|
|--------------------|--------------------||-----------------------------------------|
|--------------------|--------------------||-----------------------------------------|
|--------------------|--------------------||-----------------------------------------|
|-----0-0-0-0-0-0----|-----1-1-1-1-1-1----||-0-0-0-0-0-0---0-0-0-0-0-0-1-1-1-1-1-1---|
|-----0-0-0-0-0-0----|-----1-1-1-1-1-1----||-0-0-0-0-0-0---0-0-0-0-0-0-1-1-1-1-1-1---|
|
| Gtr II
|                                            PM--------|   PM--------------------|
| H.                   H.                    T T S T T S E T T S T T S T T S T T S E
|--------------------|--------------------||-----------------------------------------|
|--------------------|--------------------||-----------------------------------------|
|--------------------|--------------------||-----------------------------------------|
|--------------------|--------------------||-----------------------------------------|
|--------------------|--------------------||-0-0-0-0-0-0---0-0-0-0-0-0-1-1-1-1-1-1---|
|--------------------|--------------------||-0-0-0-0-0-0---0-0-0-0-0-0-1-1-1-1-1-1---|
|
| Gtr III
| H.                   H.                    W
|--------------------|--------------------||-----------------------------------------|
|--------------------|--------------------||-----------------------------------------|
|--------------------|--------------------||-----------------------------------------|
|--------------------|--------------------||-----------------------------------------|
|--------------------|--------------------||-----------------------------------------|
|--------------------|--------------------||-----------------------------------------|


  D5                         Eb5
  PM---------|   PM--------------------|
  T  T S T T S E T T S T T S T T S T T S E
|----------------------------------------------|
|----------------------------------------------|
|----------------------------------------------|
|----------------------------------------------|
|-0--0-0-0-0-0---0-0-0-0-0-0-1-1-1-1-1-1-------|
|-0--0-0-0-0-0---0-0-0-0-0-0-1-1-1-1-1-1-------|
|
| PM---------|   PM--------------------|
| T  T S T T S E T T S T T S T T S T T S E
|----------------------------------------------|
|----------------------------------------------|
|----------------------------------------------|
|----------------------------------------------|
|-0--0-0-0-0-0---0-0-0-0-0-0-1-1-1-1-1-1-------|
|-0--0-0-0-0-0---0-0-0-0-0-0-1-1-1-1-1-1-------|
|
| H.                               S   S S S
|----------------------------------------------|
|----------------------------------------------|
|----------------------------------------------|
|----------------------------------------------|
|----------------------------------4---5-4-7---|
|----------------------------------------------|


  D5                          Eb5
  PM--------|     PM--------------------|
  T T S T T S E   T T S T T S T T S T T S E
|---------------------------------------------|
|---------------------------------------------|
|---------------------------------------------|
|---------------------------------------------|
|-0-0-0-0-0-0-----0-0-0-0-0-0-1-1-1-1-1-1-----|
|-0-0-0-0-0-0-----0-0-0-0-0-0-1-1-1-1-1-1-----|
|
| PM--------|     PM--------------------|
| T T S T T S E   T T S T T S T T S T T S E
|---------------------------------------------|
|---------------------------------------------|
|---------------------------------------------|
|---------------------------------------------|
|-0-0-0-0-0-0-----0-0-0-0-0-0-1-1-1-1-1-1-----|
|-0-0-0-0-0-0-----0-0-0-0-0-0-1-1-1-1-1-1-----|
|
| S   S S   S S S S   S S   S S   S S   S S S
|---------------------------------------------|
|---------------------------------------------|
|---------------------------------------------|
|---------------------------------------------|
|-5---4-1---0-4-5-4---7-5---4-1---0-4---5-4-7-|
|---------------------------------------------|


  D5                          Eb5   N.C.
  PM--------|     PM--------------|
  T T S T T S E   T T S T T S T T S S S S  S
|--------------------------------------------|
|--------------------------------------------|
|--------------------------------------------|
|--------------------------------------------|
|-0-0-0-0-0-0-----0-0-0-0-0-0-1-1-1-4-5-4--7-|
|-0-0-0-0-0-0-----0-0-0-0-0-0-1-1-1----------|
|
| PM--------|     PM--------------|
| T T S T T S E   T T S T T S T T S S S S  S
|--------------------------------------------|
|--------------------------------------------|
|--------------------------------------------|
|--------------------------------------------|
|-0-0-0-0-0-0-----0-0-0-0-0-0-1-1-1-7-8-7-10-|
|-0-0-0-0-0-0-----0-0-0-0-0-0-1-1-1----------|
|
|                                   >
| S   S S   S S S S   S S   S S   S S S S  S
|--------------------------------------------|
|--------------------------------------------|
|--------------------------------------------|
|--------------------------------------------|
|-5---4-1---0-4-5-4---7-5---4-1---0-4-5-4--7-|
|--------------------------------------------|


  N.C.
  Gtr I
  S S S S S S S  S S S S S S S S  S
|-----------------------------------|
|-----------------------------------|
|-----------------------------------|
|-----------------------------------|
|-5-4-1-0-4-5-4--7-5-4-1-0-4-5-4--7-|
|-----------------------------------|
|
| Gtr II
| S S S S S S S  S S S S S S S S  S
|-----------------------------------|
|-----------------------------------|
|-----------------------------------|
|-----------------------------------|
|-8-7-4-3-7-8-7-10-8-7-4-3-7-8-7-10-|
|-----------------------------------|


                           Q=128
 3/4                        4/4
                             TPTPTPTP          TPTPTPTP
  S S S S S S S  S S S S S   E E E E H         E E E E H
|--------------------------|-----------------|-----------------||
|--------------------------|-----------------|-----------------||
|--------------------------|-----------------|-----------------||
|--------------------------|-----------------|-----------------||
|-5-4-1-0-4-5-4--7-5-4-1-0-|-----------------|-----------------||
|--------------------------|-4-7-4-3---------|-4-7-4-3---------||
|
|                                    TPTPTPTP          TPTPTPTP
| S S S S S S S  S S S S S   H       E E E E   H       E E E E
|--------------------------|-----------------|-----------------||
|--------------------------|-----------------|-----------------||
|--------------------------|-----------------|-----------------||
|--------------------------|-----------------|-----------------||
|-8-7-4-3-7-8-7-10-8-7-4-3-|-----------------|-----------------||
|--------------------------|---------6-9-6-5-|---------6-9-6-5-||


 "Time slowly corrodes.."
  N.C.
  Gtrs I, II
  TPTPTPTPTPTPTPTP  TPTPTPTPTPTPTPTP  TPTPTPTPTPTPTPTP  TPTPTPTPTPTPTPTP
  E E E E E E E E   E E E E E E E E   E E E E E E E E   E E E E E E E E
|-----------------|-----------------|-----------------|-----------------|
|-----------------|-----------------|-----------------|-----------------|
|-----------------|-----------------|-----------------|-----------------|
|-----------------|-----------------|-----------------|-----------------|
|-----------------|-----------------|-----------------|-----------------|
|-4-7-4-3-6-9-6-5-|-4-7-4-3-6-9-6-5-|-4-7-4-3-6-9-6-5-|-4-7-4-3-6-9-6-5-|


  Q=182
  N.C.                          D5
  Gtr I
  TP      TP   TP    TP   TP    TP   TP      TP    TP
  H.      Q    H     Q    Q     H    H       H     H
|------------|----------------|-----------|-------------||
|------------|----------------|-----------|-------------||
|------------|----------------|-----------|-------------||
|------------|----------------|------8----|--------7----||
|-5-------4--|-5-----1----4---|-5---------|--4----------||
|------------|----------------|-----------|-------------||
|
| Gtr II
|                         PM
| W            H     Q  a E E   W           +W
|------------|----------------|-----------|-------------||
|------------|----------------|-----------|-------------||
|------------|----------------|-----------|-------------||
|------------|----------------|-0---------|-(0)---------||
|------------|------------0---|-0---------|-(0)---------||
|------------|------12s=0-0---|-0---------|-(0)---------||


 "At the grips of.."
  N.C.
  TP      TP   TP   TP TP   TP    TP     TP    TP
  H.      Q    H    Q  Q    H     H      H     H
|------------|------------|------------|------------|
|------------|------------|------------|------------|
|------------|------------|------------|------------|
|------------|------------|-------8----|-------7----|
|-5-------4--|-5----1--4--|-5----------|-4----------|
|------------|------------|------------|------------|
|
| TP      TP   TP   TP TP   TP    TP     TP    TP
| H.      Q    H    Q  Q    H     H      H     H
|------------|------------|------------|------------|
|------------|------------|------------|------------|
|------------|------------|------------|------------|
|------------|------------|------11----|------10----|
|-8-------7--|-8----4--7--|-8----------|-7----------|
|------------|------------|------------|------------|


  N.C.
  Gtrs I, II
  TP      TP   TP   TP TP   TP   TP     TP   TP
  H.      Q    H    Q  Q    H    H      H    H
|------------|------------|-----------|-----------|
|------------|------------|-----------|-----------|
|------------|------------|-----------|-----------|
|------------|------------|------8----|------7----|
|-5-------4--|-5----1--4--|-5---------|-4---------|
|------------|------------|-----------|-----------|


                          Q=140
  N.C.
  Gtr I
  TP      TP   TP   TP TP
  H.      Q    H    Q  Q    E E E E  E  E  E  E   E E E E  E  E  E  E
|------------|------------|---------------------|---------------------|
|------------|------------|---------------------|---------------------|
|------------|------------|---------------------|---------------------|
|------------|------------|----------8--8--8--8-|----------7--7--7--7-|
|-5-------4--|-5----1--4--|-5-5-5-5-------------|-4-4-4-4-------------|
|------------|------------|---------------------|---------------------|
|
| Gtr II
| TP      TP   TP   TP TP
| H.      Q    H    Q  Q    E E E E  E  E  E  E   E E E E  E  E  E  E
|------------|------------|---------------------|---------------------|
|------------|------------|---------------------|---------------------|
|------------|------------|---------------------|---------------------|
|------------|------------|---------11-11-11-11-|---------10-10-10-10-|
|-8-------7--|-8----4--7--|-8-8-8-8-------------|-7-7-7-7-------------|
|------------|------------|---------------------|---------------------|


  N.C.
  E E E E  E  E  E  E   E E E E  E  E  E  E
|---------------------|---------------------|
|---------------------|---------------------|
|---------------------|---------------------|
|----------4--4--4--4-|----------3--3--3--3-|
|-1-1-1-1-------------|-0-0-0-0-------------|
|---------------------|---------------------|
|
| E E E E  E  E  E  E   E E E E  E  E  E  E
|---------------------|---------------------|
|---------------------|---------------------|
|---------------------|---------------------|
|---------11-11-11-11-|---------10-10-10-10-|
|-8-8-8-8-------------|-7-7-7-7-------------|
|---------------------|---------------------|


   E  E  E  E  E  E  E  E    E  E  E  E  E  E  E  E
|-------------------------|-------------------------|
|-------------------------|-------------------------|
|-------------------------|-------------------------|
|--------------8--8--8--8-|--------------7--7--7--7-|
|--5--5--5--5-------------|--4--4--4--4-------------|
|-------------------------|-------------------------|
|
|  E  E  E  E  E  E  E  E    E  E  E  E  E  E  E  E
|-------------------------|-------------------------|
|-------------------------|-------------------------|
|-------------------------|-------------------------|
|-------------15-15-15-15-|-------------14-14-14-14-|
|-12-12-12-12-------------|-11-11-11-11-------------|
|-------------------------|-------------------------|


  Q=118
  D5    N.C. D5    N.C.   D5    N.C. D5    N.D5    N.C.
  PM--| TP   PM--| TP     PM--| TP   PM--| TPPM--| TP
  T T S Q.   T T S Q.     T T S Q.   T T S E T T S E
|-----------------------|----------------------------|
|-----------------------|----------------------------|
|-----------------------|----------------------------|
|-----------------------|----------------------------|
|-0-0-0-4----0-0-0-3----|-0-0-0-4----0-0-0-6-0-0-0-5-|
|-0-0-0------0-0-0------|-0-0-0------0-0-0---0-0-0---|
|
| PM--| TP   PM--| TP     PM--| TP   PM--| TPPM--| TP
| T T S Q.   T T S Q.     T T S Q.   T T S E T T S E
|-----------------------|----------------------------|
|-----------------------|----------------------------|
|-----------------------|----------------------------|
|-----------------------|----------------------------|
|-0-0-0-8----0-0-0-7----|-0-0-0-8----0-0-0-9-0-0-0-8-|
|-0-0-0------0-0-0------|-0-0-0------0-0-0---0-0-0---|


   "They hold back tight.."
    H.=H
    PM-------------------------------------| TPTPTP
    E S S  S S E E S S  S S E   E S S  S S E E E E S S
||----------------------------|---------------------------||
||o---------------------------|--------------------------o||
||----------------------------|---------------------------||
||----------------------------|---------------------------||
||o---5-4--7-5-3---5-4--7-5-2-|---5-4--7-5-3-3-6-2-2h5---o||
||--0------------0------------|-0-------------------------||
|
|   PM-------------------------------------| TPTPTP
|   E S S  S S E E S S  S S E   E S S  S S E E E E S S
||----------------------------|---------------------------||
||o---------------------------|--------------------------o||
||----------------------------|---------------------------||
||----------------------------|---------------------------||
||o---8-7-10-8-6---8-7-10-8-5-|---8-7-10-8-6-6-9-5-5h8---o||
||--0------------0------------|-0-------------------------||


  Q=110
  D5    N.C.              D5    N.C.
  PM--| TPTP  TPTPTP      PM--| TPTP  TPTP
  T T S E Q   E E E S S   T T S E Q   E E E E
|-----------------------|---------------------|
|-----------------------|---------------------|
|-----------------------|---------------------|
|-----------------------|---------------------|
|-0-0-0-5-4---7-5-4-2h4-|-0-0-0-5-4---7-5-2---|
|-0-0-0-----------------|-0-0-0---------------|
|
| PM--| TPTP  TPTPTP      PM--| TPTP  TPTP
| T T S E Q   E E E S S   T T S E Q   E E E E
|-----------------------|---------------------|
|-----------------------|---------------------|
|-----------------------|---------------------|
|-----------------------|---------------------|
|-0-0-0-8-7--11-8-7-5h7-|-0-0-0-8-7--11-8-5---|
|-0-0-0-----------------|-0-0-0---------------|


  D5    N.C.              D5    N.C.
  PM--| TPTP  TPTPTP      PM--| TPTP  TPTP
  T T S E Q   E E E S S   T T S E Q   E E E E
|-----------------------|-----------------------|
|-----------------------|-----------------------|
|-----------------------|-----------------------|
|-----------------------|-----------------------|
|-0-0-0-5-4---7-5-4-2h4-|-0-0-0-5-4---7-5-2-----|
|-0-0-0-----------------|-0-0-0-----------------|
|
| PM--| TPTP  TPTPTP      PM--| TPTP  TPTP
| T T S E Q   E E E S S   T T S E Q   E E E E
|-----------------------|-----------------------|
|-----------------------|-----------------------|
|-----------------------|-----------------------|
|-----------------------|-----------------------|
|-0-0-0-8-7--11-8-7-5h7-|-0-0-0-8-7--11-8-5-----|
|-0-0-0-----------------|-0-0-0-----------------|


  Q=102
  D5  N.C.              D5  N.C.
                                      \1_______|
  PM|                   PM|
  S S E Q   E E E  E    S S E Q   E E E.      +S
|---------------------|---------------------------|
|---------------------|---------------------------|
|-----------------[4]-|---------------------------|
|---------------------|---------------------------|
|-0-0-5-4---7-5-4-----|-0-0-5-4---7-5-4-------(4)-|
|-0-0-----------------|-0-0-----------------------|
|
| PM|                   PM|
| S S E Q   E E E  E    S S E Q   E E E   +E
|---------------------|---------------------------|
|---------------------|---------------------------|
|---------------------|---------------------------|
|---------------------|---------------------------|
|-0-0-8-7--11-8-7-[5]-|-0-0-8-7--11-8-5b6-(5)-----|
|-0-0-----------------|-0-0-----------------------|


  D5  N.C.              D5  N.C.      D5
  PM|                   PM|           PM
  S S E Q   E E E  E    S S E Q   E E Q
|---------------------|-------------------|
|---------------------|-------------------|
|-----------------[4]-|-------------------|
|---------------------|-------------------|
|-0-0-5-4---7-5-4-----|-0-0-5-4---7-5-0---|
|-0-0-----------------|-0-0-----------0---|
|
| PM|                   PM|           PM
| S S E Q   E E E  E    S S E Q   E E Q
|---------------------|-------------------|
|---------------------|-------------------|
|---------------------|-------------------|
|---------------------|-------------------|
|-0-0-8-7--11-8-7-[5]-|-0-0-8-7--11-8-0---|
|-0-0-----------------|-0-0-----------0---|


  D5
 3/4
   PM---------------|
  +H.        +H     E E
|----------|------------||
|----------|------------||
|----------|------------||
|----------|------------||
|-(0)------|-(0)----0---||
|-(0)------|-(0)----0---||
|
|  PM---------------|
| +H.        +H     E E
|----------|------------||
|----------|------------||
|----------|------------||
|----------|------------||
|-(0)------|-(0)----0---||
|-(0)------|-(0)----0---||


   "For when this woman.."
    D5    N.D5    N.D5    N.D5    N.C.D5    N.D5    N.D5    N.D5    N.C.
   4/4
    PM--|   PM--|   PM--|   PM--|     PM--|   PM--|   PM--|   PM--|
    T T S E T T S E T T S E T T S E   T T S E T T S E T T S E T T S E
||----------------------------------|----------------------------------||
||o---------------------------------|---------------------------------o||
||----------------------------------|----------------------------------||
||----------------------------------|----------------------------------||
||o-0-0-0-6-0-0-0-5-0-0-0-6-0-0-0-5-|-0-0-0-2-0-0-0-1-0-0-0-2-0-0-0-1-o||
||--0-0-0---0-0-0---0-0-0---0-0-0---|-0-0-0---0-0-0---0-0-0---0-0-0----||
|
|   PM--|   PM--|   PM--|   PM--|     PM--|   PM--|   PM--|   PM--|
|   T T S E T T S E T T S E T T S E   T T S E T T S E T T S E T T S E
||----------------------------------|----------------------------------||
||o---------------------------------|---------------------------------o||
||----------------------------------|----------------------------------||
||----------------------------------|----------------------------------||
||o-0-0-0-9-0-0-0-8-0-0-0-9-0-0-0-8-|-0-0-0-5-0-0-0-4-0-0-0-5-0-0-0-4-o||
||--0-0-0---0-0-0---0-0-0---0-0-0---|-0-0-0---0-0-0---0-0-0---0-0-0----||


    D5    N.D5    N.D5    N.D5          N.D5    N.D5    N.D5
    PM--|   PM--|   PM--|         PM--|   PM--|   PM--|   PM
    T T S E T T S E T T S E E E   T T S E T T S E T T S E E E  4x
||------------------------------|------------------------------||
||o-----------------------------|-----------------------------o||
||------------------------------|------------------------------||
||------------------------------|------------------------------||
||o-0-0-0-6-0-0-0-5-0-0-0-6-0---|-0-0-0-2-0-0-0-1-0-0-0-2-0---o||
||--0-0-0---0-0-0---0-0-0---0---|-0-0-0---0-0-0---0-0-0---0----||
|
|   PM--|   PM--|   PM--|         PM--|   PM--|   PM--|   PM
|   T T S E T T S E T T S E E E   T T S E T T S E T T S E E E  4x
||------------------------------|------------------------------||
||o-----------------------------|-----------------------------o||
||------------------------------|------------------------------||
||------------------------------|------------------------------||
||o-0-0-0-9-0-0-0-8-0-0-0-9-0---|-0-0-0-5-0-0-0-4-0-0-0-5-0---o||
||--0-0-0---0-0-0---0-0-0---0---|-0-0-0---0-0-0---0-0-0---0----||


  N.C.
            5/4
  Gtrs I, II
  W          W        Q
|----------|-------------||
|----------|-------------||
|----------|-------------||
|----------|-------------||
|----------|-------------||
|----------|-------------||


 "This disease continues.."
  D5    N.C. D5    N.D5    N.C.D5                  N.C.
 4/4
  Gtr I
  PM--|      PM--|   PM--|     PM--------|   PM--| TPTPTPTP
  T T S E Q  T T S E T T S E   T T S T T S E T T S E E E E
|----------------------------|-----------------------------|
|----------------------------|-----------------------------|
|----------------------------|-----------------------------|
|----------------------------|-----------------------------|
|-0-0-0-6----0-0-0-6-0-0-0-6-|-0-0-0-0-0-0---0-0-0---------|
|-0-0-0------0-0-0---0-0-0---|-0-0-0-0-0-0---0-0-0-4-3-1-3-|
|
| Gtr II
| PM--|      PM--|   PM--|     PM--------|   PM--| TPTPTPTP
| T T S E Q  T T S E T T S E   T T S T T S E T T S E E E E
|----------------------------|-----------------------------|
|----------------------------|-----------------------------|
|----------------------------|-----------------------------|
|----------------------------|-----------------------------|
|-0-0-0-9----0-0-0-9-0-0-0-9-|-0-0-0-0-0-0---0-0-0---------|
|-0-0-0------0-0-0---0-0-0---|-0-0-0-0-0-0---0-0-0-4-3-1-3-|


  D5    N.C. D5    N.D5    N.C.D5             N.C.
  PM--|      PM--|   PM--|     PM--------|
  T T S E Q  T T S E T T S E   T T S T T S Q  S S S S S S E
|----------------------------|------------------------------|
|----------------------------|------------------------------|
|----------------------------|------------------------2p1---|
|----------------------------|--------------------2p1-----2-|
|-0-0-0-6----0-0-0-6-0-0-0-6-|-0-0-0-0-0-0----1h2-----------|
|-0-0-0------0-0-0---0-0-0---|-0-0-0-0-0-0------------------|
|
| PM--|      PM--|   PM--|     PM--------|
| T T S E Q  T T S E T T S E   T T S T T S Q  S S S S S S E
|----------------------------|------------------------------|
|----------------------------|------------------------------|
|----------------------------|------------------------6p5---|
|----------------------------|--------------------6p5-----6-|
|-0-0-0-9----0-0-0-9-0-0-0-9-|-0-0-0-0-0-0----5h6-----------|
|-0-0-0------0-0-0---0-0-0---|-0-0-0-0-0-0------------------|


  D5    N.C. D5    N.D5    N.C.D5                  N.C.
  PM--|      PM--|   PM--|     PM--------|   PM--| TPTPTPTP
  T T S E Q  T T S E T T S E   T T S T T S E T T S E E E E
|----------------------------|-----------------------------|
|----------------------------|-----------------------------|
|----------------------------|-----------------------------|
|----------------------------|-----------------------------|
|-0-0-0-6----0-0-0-6-0-0-0-6-|-0-0-0-0-0-0---0-0-0---------|
|-0-0-0------0-0-0---0-0-0---|-0-0-0-0-0-0---0-0-0-4-3-1-3-|
|
| PM--|      PM--|   PM--|     PM--------|   PM--| TPTPTPTP
| T T S E Q  T T S E T T S E   T T S T T S E T T S E E E E
|----------------------------|-----------------------------|
|----------------------------|-----------------------------|
|----------------------------|-----------------------------|
|----------------------------|-----------------------------|
|-0-0-0-9----0-0-0-9-0-0-0-9-|-0-0-0-0-0-0---0-0-0---------|
|-0-0-0------0-0-0---0-0-0---|-0-0-0-0-0-0---0-0-0-4-3-1-3-|


  D5    N.C. D5    N.D5    N.C.
  PM--|      PM--|   PM--|
  T T S E Q  T T S E T T S E
|----------------------------|
|----------------------------|
|----------------------------|
|----------------------------|
|-0-0-0-6----0-0-0-6-0-0-0-6-|
|-0-0-0------0-0-0---0-0-0---|
|
| PM--|      PM--|   PM--|
| T T S E Q  T T S E T T S E
|----------------------------|
|----------------------------|
|----------------------------|
|----------------------------|
|-0-0-0-9----0-0-0-9-0-0-0-9-|
|-0-0-0------0-0-0---0-0-0---|


                                           3/4
  PM--------|   PM--------|   PM----------------------|
  T T S T T S E T T S T T S E T T S T T S   T T S T T S H
|-----------------------------------------|------------------|
|-----------------------------------------|------------------|
|-----------------------------------------|------------------|
|-----------------------------------------|------------------|
|-----------------------------------------|------------------|
|-4-4-4-4-4-4---1-1-1-1-1-1---4-4-4-1-1-1-|-0-0-0-0-0-0------|
|
| PM--------|   PM--------|   PM----------------------|
| T T S T T S E T T S T T S E T T S T T S   T T S T T S H
|-----------------------------------------|------------------|
|-----------------------------------------|------------------|
|-----------------------------------------|------------------|
|-----------------------------------------|------------------|
|-----------------------------------------|------------------|
|-7-7-7-7-7-7---4-4-4-4-4-4---7-7-7-4-4-4-|-0-0-0-0-0-0------|


  N.C.
 4/4
  Gtrs I, II
                          |-3-|                             |-3-|
  S S S S S S S S S S S S S S S E   S S S S S S S S S S S S S S S E
|---------------------------------|---------------------------------|
|-------------2p1-----------------|-------------3p2-----------------|
|---------1p0-----1p0-------------|---------2p1-----2p1-------------|
|-----1p0-------------1p0-0h1p0---|-----2p1-------------2p1-1h2p1-0-|
|-0h1---------------------------4-|-1h2-----------------------------|
|---------------------------------|---------------------------------|


                          |-3-|                             |-3-|
  S S S S S S S S S S S S S S S E   S S S S S S S S S S S S S S S E
|---------------------------------|-----------------------------------|
|-------------4p3-----------------|-------------5p4-------------------|
|---------3p2-----3p2-------------|---------4p3-----4p3---------------|
|-----3p2-------------3p2-2h3p2-1-|-----4p3-------------4p3-3h4p3-2---|
|-2h3-----------------------------|-3h4-------------------------------|
|---------------------------------|-----------------------------------|


  N.C.
  Gtr I
                          |-3-|                             |-3-|
  S S S S S S S S S S S S S S S E   S S S S S S S S S S S S S S S E
|---------------------------------|---------------------------------|
|-------------2p1-----------------|-------------3p2-----------------|
|---------1p0-----1p0-------------|---------2p1-----2p1-------------|
|-----1p0-------------1p0-0h1p0---|-----2p1-------------2p1-1h2p1-0-|
|-0h1---------------------------4-|-1h2-----------------------------|
|---------------------------------|---------------------------------|
|
| Gtr II
|--------------------------------------------------------------------
|                         |-3-|                             |-3-|
| S S S S S S S S S S S S S S S E   S S S S S S S S S S S S S S S E
|---------------------------------|---------------------------------|
|-------------6p5-----------------|-------------7p6-----------------|
|---------5p4-----5p4-------------|---------6p5-----6p5-------------|
|-----5p4-------------5p4-4h5p4-3-|-----6p5-------------6p5-5h6p5-4-|
|-4h5-----------------------------|-5h6-----------------------------|
|---------------------------------|---------------------------------|


  H=H                                            Q=116
  TPTP TPTP TPTP TPTP   TPTP TPTP  TP TP  TP
  S E. S E. S E. S E.   S E. S E.  S  E.  Q      H    H
|---------------------|------------------------|-----------|
|---------------------|------------------------|-----------|
|---------------------|------------------------|-----------|
|---------------------|------------------------|-----------|
|-2-1--4-3--6-5--8-7--|-7-6--9-8--11-10--12----|-----------|
|---------------------|------------------------|-4----1----|
|
|-------------------------------------------TP
| S E. S E. S E. S E.   S E. S E.  S  E.  S E.   H    H
|---------------------|------------------------|-----------|
|---------------------|------------------------|-----------|
|---------------------|------------------------|-----------|
|---------------------|------------------------|-----------|
|-2-1--4-3--6-5--8-7--|-2-1--4-3---6--5---8-7--|-----------|
|---------------------|------------------------|-8----5----|


  D5                         F#5          F5
 3/4
  PM---|   PM  PM--|   PM    PM---|   PM  PM---|   PM
  S  S S S S S S S S S S S   S  S S S S S S  S S S S S
|--------------------------|---------------------------|
|--------------------------|---------------------------|
|--------------------------|---------------------------|
|--------------------------|--------4---4--------3---3-|
|--------5---5-------5---5-|---------------------------|
|-0--0-0---0---0-0-0---0---|-4--4-4---4---3--3-3---3---|
|
| H.                         Q.           Q.
|--------------------------|---------------------------|
|--------------------------|---------------------------|
|--------------------------|---------------------------|
|-0------------------------|-4------------3------------|
|-0------------------------|-4------------3------------|
|-0------------------------|-4------------3------------|


  D5                         F#5          F5
  PM---|   PM  PM--|   PM    PM---|   PM  PM---|   PM
  S  S S S S S S S S S S S   S  S S S S S S  S S S S S
|--------------------------|----------------------------||
|--------------------------|----------------------------||
|--------------------------|----------------------------||
|--------------------------|--------4---4--------3---3--||
|--------5---5-------5---5-|----------------------------||
|-0--0-0---0---0-0-0---0---|-4--4-4---4---3--3-3---3----||
|
| H.                         Q.           Q.
|--------------------------|----------------------------||
|--------------------------|----------------------------||
|--------------------------|----------------------------||
|-0------------------------|-4------------3-------------||
|-0------------------------|-4------------3-------------||
|-0------------------------|-4------------3-------------||


 "Contamination grows.."
  D5                         F#5          F5
  PM---|   PM  PM--|   PM    PM---|   PM  PM---|   PM
  S  S S S S S S S S S S S   S  S S S S S S  S S S S S
|--------------------------|---------------------------|
|--------------------------|---------------------------|
|--------------------------|---------------------------|
|--------------------------|--------4---4--------3---3-|
|--------5---5-------5---5-|---------------------------|
|-0--0-0---0---0-0-0---0---|-4--4-4---4---3--3-3---3---|
|
| H.                         Q.           Q.
|--------------------------|---------------------------|
|--------------------------|---------------------------|
|--------------------------|---------------------------|
|-0------------------------|-4------------3------------|
|-0------------------------|-4------------3------------|
|-0------------------------|-4------------3------------|


  D5                         F#5          F5
  PM---|   PM  PM--|   PM    PM---|   PM  PM
  S  S S S S S S S S S S S   S  S S S S S E Q
|--------------------------|---------------------|
|--------------------------|---------------------|
|--------------------------|---------------------|
|--------------------------|--------4---4--------|
|--------5---5-------5---5-|---------------------|
|-0--0-0---0---0-0-0---0---|-4--4-4---4---3------|
|
| H.                         Q.           E Q
|--------------------------|---------------------|
|--------------------------|---------------------|
|--------------------------|---------------------|
|-0------------------------|-4------------3------|
|-0------------------------|-4------------3------|
|-0------------------------|-4------------3------|


  N.C.
  PM--|   PM  PM--|   PM    PM--|   PM  PM--|   PM
  S S S S S S S S S S S S   S S S S S S S S S S S S
|-------------------------|-------------------------|
|-------------------------|-------------------------|
|-------------------------|-------------------------|
|-------------------------|-------4---4-------3---3-|
|-------5---5-------5---5-|-------------------------|
|-0-0-0---0---0-0-0---0---|-4-4-4---4---3-3-3---3---|
|
| PM--|   PM  PM--|   PM    PM--|   PM  PM--|   PM
| S S S S S S S S S S S S   S S S S S S S S S S S S
|-------------------------|-------------------------|
|-------------------------|-------------------------|
|-------------------------|-------------------------|
|-------------------------|-------7---7-------6---6-|
|-------8---8-------8---8-|-------------------------|
|-0-0-0---0---0-0-0---0---|-4-4-4---4---3-3-3---3---|


  PM--|   PM  PM--|   PM    PM--|   PM  PM--|   PM
  S S S S S S S S S S S S   S S S S S S S S S S S S
|-------------------------|----------------------------|
|-------------------------|----------------------------|
|-------------------------|----------------------------|
|-------------------------|-------4---4-------3---3----|
|-------5---5-------5---5-|----------------------------|
|-0-0-0---0---0-0-0---0---|-4-4-4---4---3-3-3---3------|
|
| PM--|   PM  PM--|   PM    PM--|   PM  PM--|   PM
| S S S S S S S S S S S S   S S S S S S S S S S S S
|-------------------------|----------------------------|
|-------------------------|----------------------------|
|-------------------------|----------------------------|
|-------------------------|-------7---7-------6---6----|
|-------8---8-------8---8-|----------------------------|
|-0-0-0---0---0-0-0---0---|-4-4-4---4---3-3-3---3------|


  N.C.
  PM--|   PM  PM--|   PM    PM--|   PM  PM--|   PM
  S S S S S S S S S S S S   S S S S S S S S S S S S
|-------------------------|-------------------------|
|-------------------------|-------------------------|
|-------------------------|-------------------------|
|-------------------------|-------4---4-------3---3-|
|-------5---5-------5---5-|-------------------------|
|-0-0-0---0---0-0-0---0---|-4-4-4---4---3-3-3---3---|
|
| PM--|   PM  PM--|   PM    PM--|   PM  PM--|   PM
| S S S S S S S S S S S S   S S S S S S S S S S S S
|-------------------------|-------------------------|
|-------------------------|-------------------------|
|-------------------------|-------------------------|
|-------------------------|-------7---7-------6---6-|
|-------8---8-------8---8-|-------------------------|
|-0-0-0---0---0-0-0---0---|-4-4-4---4---3-3-3---3---|


  PM--|   PM  PM--|   PM    PM--|   PM  PM
  S S S S S S S S S S S S   S S S S S S E Q
|-------------------------|--------------------||
|-------------------------|--------------------||
|-------------------------|--------------------||
|-------------------------|-------4---4--------||
|-------5---5-------5---5-|--------------------||
|-0-0-0---0---0-0-0---0---|-4-4-4---4---3------||
|
| PM--|   PM  PM--|   PM    PM--|   PM  PM
| S S S S S S S S S S S S   S S S S S S E Q
|-------------------------|--------------------||
|-------------------------|--------------------||
|-------------------------|--------------------||
|-------------------------|-------7---7--------||
|-------8---8-------8---8-|--------------------||
|-0-0-0---0---0-0-0---0---|-4-4-4---4---3------||


 Bree Bree!
  Q=162
  N.C.
 4/4
  TP      TP   TP   TP TP   TP          TP
  H.      Q    H    Q  Q    W          +W
|------------|------------|----------|--------|
|------------|------------|----------|--------|
|------------|------------|----------|--------|
|------------|------------|----------|--------|
|------------|------------|----------|--------|
|-1-------4--|-3----1--3--|-0--------|-(0)----|
|
| TP      TP   TP   TP TP   TP          TP
| H.      Q    H    Q  Q    W          +W
|------------|------------|----------|--------|
|------------|------------|----------|--------|
|------------|------------|----------|--------|
|------------|-6----5-----|----------|--------|
|---------5--|---------6--|-5--------|-(5)----|
|-5----------|------------|----------|--------|


  N.C.
  TP      TP   TP   TP TP   TP          TP
  H.      Q    H    Q  Q    W          +W
|------------|------------|----------|--------|
|------------|------------|----------|--------|
|------------|------------|----------|--------|
|------------|------------|----------|--------|
|------------|------------|----------|--------|
|-1-------4--|-3----1--3--|-0--------|-(0)----|
|
| TP      TP   TP   TP TP   TP          TP
| H.      Q    H    Q  Q    W          +W
|------------|------------|----------|--------|
|------------|------------|----------|--------|
|------------|------------|----------|--------|
|------------|------------|----------|--------|
|------------|------------|----------|--------|
|-5-------8--|-7----5--7--|-0--------|-(0)----|


  N.C.
  TP      TP    TP   TP TP   TP          TP
  H.      Q     H    Q  Q    W          +W
|-------------|------------|----------|--------|
|-------------|------------|----------|--------|
|-------------|------------|----------|--------|
|-------------|------------|----------|--------|
|-------------|------------|----------|--------|
|-1-------4---|-3----1--3--|-0--------|-(0)----|
|
| TP      TPTP  TP   TP TP   TP          TP
| H.      E E   H    Q  Q    W          +W
|-------------|------------|----------|--------|
|-------------|------------|----------|--------|
|-------------|------------|----------|--------|
|-------------|-6----5-----|----------|--------|
|---------6-5-|---------6--|-5--------|-(5)----|
|-5-----------|------------|----------|--------|


  Q=145
  N.C.                      D5
  H.      Q    H    Q  Q    W          +W
|------------|------------|----------|--------|
|------------|------------|----------|--------|
|------------|------------|----------|--------|
|------------|------------|-0--------|-(0)----|
|------------|------------|-0--------|-(0)----|
|-1-------4--|-3----1--3--|-0--------|-(0)----|
|
| H.      Q    H    Q  Q    W          +W
|------------|------------|----------|--------|
|------------|------------|----------|--------|
|------------|------------|----------|--------|
|------------|------------|-0--------|-(0)----|
|------------|------------|-0--------|-(0)----|
|-5-------8--|-7----5--7--|-0--------|-(0)----|


                      Q=125
  D5                    N.C.
              2/4      3/4
                        ~~~~~~~~~~~~~~~~~~~~~~~~~~~~~~~~~~~~~~~~
  +W           +H       S S S S E S S S S E   S S S S E S S S S E
|------------|--------|---------------------|----------------------|
|------------|--------|---------------------|----------------------|
|------------|--------|---------------------|----------------------|
|-(0)--------|-(0)----|---------------------|----------------------|
|-(0)--------|-(0)----|-1-1-1-1---0-0-0-0---|-5-5-5-5---4-4-4-4----|
|-(0)--------|-(0)----|---------------------|----------------------|
|
|                       ~~~~~~~~~~~~~~~~~~~~~~~~~~~~~~~~~~~~~~~~
| +W           +H       S S S S E S S S S E   S S S S E S S S S E
|------------|--------|---------------------|----------------------|
|------------|--------|---------------------|----------------------|
|------------|--------|---------------------|----------------------|
|-(0)--------|-(0)----|---------------------|----------------------|
|-(0)--------|-(0)----|-1-1-1-1---0-0-0-0---|-5-5-5-5---4-4-4-4----|
|-(0)--------|-(0)----|---------------------|----------------------|


  N.C.
  Gtrs I, II
  ~~~~~~~~~~~~~~~~~~~~~~~~~~~~~~~~~~~~~~~~~~~~~~~~~~~
  S S S S S S S S S S S S   S S S S S S S S S S S S
|-------------------------|-------------------------|
|-------------------------|-------------------------|
|-------------------------|-------------------------|
|-------------------------|-------------------------|
|-------------------------|-------------------------|
|-8-8-8-8-8-8-7-7-7-7-7-7-|-1-1-1-1-1-1-0-0-0-0-0-0-|


 ~~~~~~~~~~~~~~~~~~~~~~~~~~~~~~~~~~~~~~~~~~~~~~~~~~~
  S S S S S S S S S S S S   S S S S S S S S S S S S
|-------------------------|----------------------------|
|-------------------------|----------------------------|
|-------------------------|----------------------------|
|-------------------------|----------------------------|
|-------------------------|----------------------------|
|-5-5-5-5-5-5-4-4-4-4-4-4-|-8-8-8-8-8-8-7-7-7-7-7-7----|


  N.C.
  ~~~~~~~~~~~~~~~~~~~~~~~~~~~~~~~~~~~~~~~~~~~~~~~~~~~
  S S S S S S S S S S S S   S S S S S S S S S S S S
|-------------------------|-------------------------|
|-------------------------|-------------------------|
|-------------------------|-------------------------|
|-------------------------|-------------------------|
|-------------------------|-------------------------|
|-8-8-8-8-8-8-7-7-7-7-7-7-|-1-1-1-1-1-1-0-0-0-0-0-0-|


 ~~~~~~~~~~~~~~~~~~~~~~~~~~~~~~~~~~~~~~~~~~~
  S S S S S S S S S S S S   S S S S S S E Q
|-------------------------|--------------------||
|-------------------------|--------------------||
|-------------------------|--------------------||
|-------------------------|--------------------||
|-------------------------|--------------------||
|-5-5-5-5-5-5-4-4-4-4-4-4-|-8-8-8-8-8-8-7------||


 "Their flesh.."
  Q=95
  D5                                       N.C.
 4/4
  Gtr I
                                           PM      PM  PM
  E S S S S E. S S S S S S S   E S S S S E S S S S S S S S
|----------------------------|-----------------------------|
|----------------------------|-----------------------------|
|----------------------------|-------------------5---------|
|----------------------------|---------------7-8-----8---7-|
|---5p0-4p0------5p0-4p0-5p0-|---5p0-4p0---5-------5---4---|
|-0------------0-------------|-0---------------------------|
|
| Gtr II
|                              PM          PM      PM  PM
| W                            E Q.        S S S S S S S S
|----------------------------|-----------------------------|
|----------------------------|-----------------------------|
|----------------------------|-------------------5---------|
|-0--------------------------|---------------7-8-----8---7-|
|-0--------------------------|-0-----------5-------5---4---|
|-0--------------------------|-0---------------------------|


                                           PM      PM  PM
  E S S S S E. S S S S S S S   E S S S S E S S S S S S S S
|----------------------------|-----------------------------|
|----------------------------|-----------------------------|
|----------------------------|-------------------5---------|
|----------------------------|---------------7-8-----8---7-|
|---5p0-4p0------5p0-4p0-5p0-|---5p0-4p0---5-------5---4---|
|-0------------0-------------|-0---------------------------|
|
|                                          PM      PM  PM
| E S S S S E. S S S S S S S   E S S S S E S S S S S S S S
|----------------------------|-----------------------------|
|----------------------------|-----------------------------|
|----------------------------|-------------------5---------|
|----------------------------|---------------7-8-----8---7-|
|---8p0-7p0------8p0-7p0-8p0-|---8p0-7p0---5-------5---4---|
|-0------------0-------------|-0---------------------------|


  N.C.
                                           PM      PM  PM
  E S S S S E. S S S S S S S   E S S S S E S S S S S S S S
|----------------------------|-----------------------------|
|----------------------------|-----------------------------|
|----------------------------|-------------------5---------|
|----------------------------|---------------7-8-----8---7-|
|---5p0-4p0------5p0-4p0-5p0-|---5p0-4p0---5-------5---4---|
|-0------------0-------------|-0---------------------------|
|
|                                          PM      PM  PM
| E S S S S E. S S S S S S S   E S S S S E S S S S S S S S
|----------------------------|-----------------------------|
|----------------------------|-----------------------------|
|----------------------------|-------------------5---------|
|----------------------------|---------------7-8-----8---7-|
|---8p0-7p0------8p0-7p0-8p0-|---8p0-7p0---5-------5---4---|
|-0------------0-------------|-0---------------------------|


              PM      PM  PM                        PM  PM
  E S S S S E S S S S S S S S   E S S S S E S S S S S S S S
|-----------------------------|------------------------------|
|-----------------------------|------------------------------|
|-------------------5---------|-------------------5----------|
|---------------7-8-----8---7-|---------------7-8-----8---7--|
|---5p0-4p0---5-------5---4---|---5p0-4p0---5-------5---4----|
|-0---------------------------|-0----------------------------|
|
| TP                            TP          TP
| W                             H           H
|-----------------------------|------------------------------|
|-----------------------------|------------------------------|
|-----------------------------|------------------------------|
|-----------------------------|------------------------------|
|-----------------------------|------------------------------|
|-0---------------------------|-8-----------4----------------|


  N.C.
                PM    PM  PM                PM      PM  PM
  E S S S S E S S S S S S S S   E S S S S E S S S S S S S S
|-----------------------------|-----------------------------|
|-----------------------------|-----------------------------|
|-------------------5---------|-------------------5---------|
|---------------7-8-----8---7-|---------------7-8-----8---7-|
|---5p0-4p0---5-------5---4---|---5p0-4p0---5-------5---4---|
|-0---------------------------|-0---------------------------|
|
| TP                            TP          TP
| W                             H           H
|-----------------------------|-----------------------------|
|-----------------------------|-----------------------------|
|-----------------------------|-----------------------------|
|-----------------------------|-----------------------------|
|-----------------------------|-----------------------------|
|-0---------------------------|-8-----------4---------------|


  PM      PM  PM  PM      PM  PM                    PM      PM  PM
  S S S S S S S S S S S S S S S S   S S S S S S S S S S S S S S S S
|---------------------------------|----------------------------------|
|---------------------------------|----------------------------------|
|-------5---------------5---------|-----------------------5----------|
|---7-8-----8---7---7-8-----8---7-|-------------------7-8-----8---7--|
|-5-------5---4---5-------5---4---|-5p0-4p0-5p0-4p0-5-------5---4----|
|---------------------------------|----------------------------------|
|
| TP                                TP              TP
| W                                 H               H
|---------------------------------|----------------------------------|
|---------------------------------|----------------------------------|
|---------------------------------|----------------------------------|
|---------------------------------|----------------------------------|
|---------------------------------|----------------------------------|
|-0-------------------------------|-8---------------4----------------|


  N.C.
  PM      PM  PM
  S S S S S S S S S S S S S S S S
|---------------------------------|
|---------------------------------|
|-------5-------------------------|
|---7-8-----8---7-----------------|
|-5-------5---4---5p0-4p0-5p0-4p0-|
|---------------------------------|
|
| TP
| W
|---------------------------------|
|---------------------------------|
|---------------------------------|
|---------------------------------|
|---------------------------------|
|-0-------------------------------|


                                    D5
  PM      PM  PM  PM      PM  PM
  S S S S S S S S S S S S S S S S   W            +W      7x
|---------------------------------|----------||----------||
|---------------------------------|----------||o--------o||
|-------5---------------5---------|----------||----------||
|---7-8-----8---7---7-8-----8---7-|-0--------||--(0)-----||
|-5-------5---4---5-------5---4---|-0--------||o-(0)----o||
|---------------------------------|-0--------||--(0)-----||
|
| TP              TP
| H               H                 W            +W      7x
|---------------------------------|----------||----------||
|---------------------------------|----------||o--------o||
|---------------------------------|----------||----------||
|---------------------------------|-0--------||--(0)-----||
|---------------------------------|-0--------||o-(0)----o||
|-8---------------4---------------|-0--------||--(0)-----||


Duration Legend
---------------
W - whole; H - half; Q - quarter; E - 8th; S - 16th; T - 32nd; X - 64th; a - acciaccatura
+ - note tied to previous; . - note dotted; .. - note double dotted
Uncapitalized letters represent notes that are staccato (1/2 duration)
Irregular groupings are notated above the duration line
Duration letters will always appear directly above the note/fret number it represents the
duration for.  Duration letters with no fret number below them represent rests.  Multi-
bar rests are notated in the form Wxn, where n is the number of bars to rest for.  Low
melody durations appear below the staff

Tablature Legend
----------------
 h   - hammer-on
 p   - pull-off
 b   - bend
 pb  - pre-bend
 r   - bend release (if no number after the r, then release immediately)
 /\  - slide into or out of (from/to "nowhere")
 s   - legato slide
 S   - shift slide
  - natural harmonic
[n]  - artificial harmonic
n(n) - tapped harmonic
 ~   - vibrato
 tr  - trill
 T   - tap
 TP  - trem. picking
 PM  - palm muting
\n/  - tremolo bar dip; n = amount to dip
 \n  - tremolo bar down
 n/  - tremolo bar up
/n\  - tremolo bar inverted dip
 =   - hold bend; also acts as connecting device for hammers/pulls
 <>  - volume swell (louder/softer)
 x   - on rhythm slash represents muted slash
 o   - on rhythm slash represents single note slash

Misc Legend
-----------
 |  - bar
||  - double bar
||o - repeat start
o|| - repeat end
*|  - double bar (ending)
 :  - bar (freetime)
 $  - Segno
 &  - Coda
Tempo markers -  = BPM(8/16=s8/s16), where s8 = swing 8ths, s16 = swing 16ths


Добавлено: 27.03.2012
Другие материалы по этой песне:

Страница создана 27.03.2012
http://primanota.ru/job-for-a-cowboy/relinquished-chords.htm
Привет, Гость.
Предлагаем пройти революционный курс по гитаре.
Подарок от PrimaNota.Ru, забирай!