PrimaNota.ru - самый крупный в мире бесплатный архив песенных текстов, аккордов, табулатур и нот


Job For A Cowboy - Reduced To Mere Filth - текст песни, таба, видео

Регистрация Запомнить меня
Войти через:  Facebook Google Twitter Vk Yandex Mail.ru

Job For A Cowboy - Reduced To Mere Filth - текст песни, таба, видео

Печатать
Просмотров: 122
        



Gtr I (A# F A# D# G C) - 'Untitled'
Gtr II (A# F A# D# G C) - 'Untitled'
Gtr III (A# F A# D# G C) - 'Untitled'
Gtr IV (A# F A# D# G C) - 'Untitled'

  Q=250
  Gtr I
      PM|   PM                            PM|   PM        PM--|
  E E E E E E E E   W                 E E E E E E E E   E E E E E E E E
|-----------------|-----------------|-----------------|-----------------|
|-----------------|-----------------|-----------------|-----------------|
|-----------------|-----------------|-----------------|---7-------------|
|-----------------|-----------------|-------------3h7-|-----8-5-8p5-7p4-|
|-1h5-----6---6---|-----------------|-1h5-----6-------|-----------------|
|-----0-0---0---4-|-----------------|-----0-0---0-----|-----------------|
|
| Gtr II
|     PM|   PM        PM--|   PM  PM      PM|   PM        PM--|
| E E E E E E E E   E E E E E E E E   E E E E E E E E   E E E E E E E E
|-----------------|-----------------|-----------------|-----------------|
|-----------------|-----------------|-----------------|-----------------|
|-----------------|-----------------|-----------------|---7-------------|
|-----------------|-----------------|-------------3h7-|-----8-5-8p5-7p4-|
|-1h5-----6---6---|---------1---0---|-1h5-----6-------|-----------------|
|-----0-0---0---4-|---1-4-1---1---4-|-----0-0---0-----|-----------------|


      PM|   PM        PM--|   PM  PM      PM|   PM          PM---|
  E E E E E E E E   E E E E E E E E   E E E E E E E  E   E  E  E E  E E  E E
|-----------------|-----------------|------------------|---------------------|
|-----------------|-----------------|------------------|---------------------|
|-----------------|-----------------|------------------|----7----------------|
|-----------------|-----------------|-------------3h=7-|-------8-5--8p5--7p4-|
|-1h5-----6---6---|---------1---0---|-1h5-----6--------|---------------------|
|-----0-0---0---4-|---1-4-1---1---4-|-----0-0---0------|---------------------|
|
|     PM|   PM        PM--|   PM  PM      PM|   PM          PM---|
| E E E E E E E E   E E E E E E E E   E E E E E E E  E   E  E  E E  E E  E E
|-----------------|-----------------|------------------|---------------------|
|-----------------|-----------------|------------------|---------------------|
|-----------------|-----------------|------------------|---10----------------|
|-----------------|-----------------|-------------6h10-|------11-8-11p8-10p7-|
|-1h5-----6---6---|---------1---0---|-1h5-----6--------|---------------------|
|-----0-0---0---4-|---1-4-1---1---4-|-----0-0---0------|---------------------|


      PM    PM        PM--|   PM
  E E E E E E E E   E E E E E E E E   E E E E E E E  E   W
|-----------------|-----------------|------------------|------|
|-----------------|-----------------|------------------|------|
|-----------------|-----------------|------------------|------|
|-----------------|-----------------|-------------7h10-|------|
|-5h8-----6---9p6-|---------4---3---|-1h5-----6--------|------|
|-----0-0---0-----|---4-7-4---4---7-|-----0-0---0------|------|
|
|     PM|   PM        PM--|   PM
| E E E E E E E E   E E E E E E E E   E E E E E E E  E
|-----------------|-----------------|------------------|------|
|-----------------|-----------------|------------------|------|
|-----------------|-----------------|------------------|------|
|-----------------|-----------------|-------------3h=7-|------|
|-1h5-----6---6---|---------1---0---|-5h8-----6--------|------|
|-----0-0---0---4-|---1-4-1---1---4-|-----0-0---0------|------|


    PM  PM                             PM  PM
  E E E E Q.   E   E E E E E E E E   E E E E Q.   E   E E E E E E E E
|----------------|-----------------|----------------|-----------------|
|----------------|-----------------|----------------|-----------------|
|--------------3-|-----------------|--------------3-|-----------------|
|----------------|-----------------|----------------|-----------------|
|-1---0---1------|-1-0-1---1-0-1-4-|-1---0---1------|-1-0-1---1-0-1-4-|
|---0---0--------|-----------------|---0---0--------|-----------------|
|
|   PM  PM                             PM  PM
| E E E E Q.   E   E E E E E E E E   E E E E Q.   E   E E E E E E E E
|----------------|-----------------|----------------|-----------------|
|----------------|-----------------|----------------|-----------------|
|--------------3-|-----------------|--------------3-|-----------------|
|----------------|-2---------------|----------------|-2-------------2-|
|-1---0---1------|---0-1---1-0-1-4-|-1---0---1------|---0-1---4-3-4---|
|---0---0--------|-----------------|---0---0--------|-----------------|


    PM  PM                             PM  PM
  E E E E Q.   E   E E E E E E E E   E E E E Q.   E   E E E E E E E E
|----------------|-----------------|----------------|-----------------|
|----------------|-----------------|----------------|-----------------|
|--------------3-|-----------------|--------------3-|-----------------|
|----------------|-----------------|----------------|-----------------|
|-1---0---1------|-1-0-1---1-0-1-4-|-1---0---1------|-1-0-1---1-0-1-4-|
|---0---0--------|-----------------|---0---0--------|-----------------|
|
|   PM  PM                             PM  PM
| E E E E Q.   E   E E E E E E E E   E E E E Q.   E   E E E E E E E E
|----------------|-----------------|----------------|-----------------|
|----------------|-----------------|----------------|-----------------|
|--------------6-|-----------------|--------------6-|-----------------|
|---------5------|-5-------------2-|---------5------|-5-------------2-|
|-4---3----------|---3-4---4-3-4---|-4---3----------|---3-4---4-3-4---|
|---0---0--------|-----------------|---0---0--------|-----------------|


  E E E E E E E E   Q  Q  Q  Q    E E E E E E E E   E E E E E E E E
|-----------------|-------------|-----------------|-----------------|
|-----------------|-------------|-----------------|-----------------|
|-----------------|-------------|-----------------|-----------------|
|-----------------|-------------|-----------------|-----------------|
|-1---0---1---0---|-3--2--1--2--|-3-------2-------|-3---2---1---2---|
|---0---0---0---0-|-------------|---0-0-0---0-0-0-|---0---0---0---0-|
|
| E E E E E E E E   Q  Q  Q  Q    E E E E E E E E   E E E E E E E E
|-----------------|-------------|-----------------|-----------------|
|-----------------|-------------|-----------------|-----------------|
|-----------------|-------------|-----------------|-----------------|
|-----------------|-------------|-----------------|-----------------|
|-1---0---1---0---|-6--5--4--5--|-3-------2-------|-3---2---1---2---|
|---0---0---0---0-|-------------|---0-0-0---0-0-0-|---0---0---0---0-|


  E E E E E E E E   Q  Q  Q  Q    E E E E E E E E   E E E E E
|-----------------|-------------|-----------------|----------------|
|-----------------|-------------|-----------------|----------------|
|-----------------|-------------|-----------------|----------------|
|-----------------|-------------|-----------------|----------------|
|-1---0---1---0---|-3--2--1--2--|-3-------2-------|-3-------2------|
|---0---0---0---0-|-------------|---0-0-0---0-0-0-|---0-0-0--------|
|
| E E E E E E E E   Q  Q  Q  Q    E E E E E E E E   E E E E E Q.
|-----------------|-------------|-----------------|----------------|
|-----------------|-------------|-----------------|----------------|
|-----------------|-------------|-----------------|----------------|
|-----------------|-------------|-----------------|----------------|
|-1---0---1---0---|-6--5--4--5--|-3-------2-------|-3-------2------|
|---0---0---0---0-|-------------|---0-0-0---0-0-0-|---0-0-0--------|


  Q  Q  Q  Q    Q  Q  Q  E E   Q  Q  Q  Q    Q  Q  Q  Q
|-------------|--------------|-------------|-------------|
|-------------|--------------|-------------|-------------|
|-------------|--------------|-------------|-------------|
|-------------|--------------|-------------|-------------|
|----3--2-----|-1--2-----4p0-|-------------|-------6--7--|
|-0--------0--|-------0------|-0--6--5--0--|-4--3--6--7--|
|
| Q  Q  Q  Q    Q  Q  Q  E E   Q  Q  Q  Q    Q  Q  Q  Q
|-------------|--------------|-------------|-------------|
|-------------|--------------|-------------|-------------|
|-------------|--------------|-------------|-------------|
|-------------|--------------|-------------|-------------|
|----6--5-----|-4--5-----0h4-|----3--2-----|-1--2--6--2--|
|-0--------0--|-------0------|-0--------0--|-------6--2--|


                                   PM|     PM-------|
  Q  Q  Q  Q    Q  Q  Q  E E   E E E E E E E E   Q  Q  Q  Q
|-------------|--------------|-----------------|-------------|
|-------------|--------------|-----------------|-------------|
|-------------|--------------|-----------------|-------------|
|-------------|--------------|-----------------|-------------|
|----3--2-----|-1--2-----4p0-|-2h5-----1h4-----|-1--2--6h=7--|
|-0--------0--|-------0------|-----0-0-----0-0-|-1--2--6h=7--|
|
|                                  PM|
| Q  Q  Q  Q    Q  Q  Q  E E   E E E E E E E E   Q  Q  Q  Q
|-------------|--------------|-----------------|-------------|
|-------------|--------------|-----------------|-------------|
|-------------|--------------|-----------------|-------------|
|-------------|--------------|-----------------|-------------|
|----6--5-----|-4--5-----0h4-|-----------------|-1--2--6p=2--|
|-0--------0--|-------0------|-6-0-0-0-5-0-0-0-|-1--2--6p=2--|


  Q  Q  Q  Q    Q  Q  Q  E E   Q  Q  Q  Q    Q  Q  Q  Q
|-------------|--------------|-------------|-------------|
|-------------|--------------|-------------|-------------|
|-------------|--------------|-------------|-------------|
|-------------|--------------|-------------|-------------|
|----3--2-----|-1--2-----4p0-|-------------|-------6--7--|
|-0--------0--|-------0------|-0--6--5--0--|-4--3--6--7--|
|
| Q  Q  Q  Q    Q  Q  Q  E E   Q  Q  Q  Q    Q  Q  Q  Q
|-------------|--------------|-------------|-------------|
|-------------|--------------|-------------|-------------|
|-------------|--------------|-------------|-------------|
|-------------|--------------|-------------|-------------|
|----6--5-----|-4--5-----0h4-|----3--2-----|-1--2--6--2--|
|-0--------0--|-------0------|-0--------0--|-------6--2--|


                               PM---------------|
  Q  Q  Q  Q    Q  Q  Q  E E   Q  Q  Q  Q    Q  Q  Q  Q
|-------------|--------------|-------------|-------------|
|-------------|--------------|-------------|-------------|
|-------------|--------------|-------------|-------------|
|-------------|--------------|-------------|-------------|
|----3--2-----|-1--2-----4p0-|-6--5--4--5--|-1--2--6--2--|
|-0--------0--|-------0------|-6--5--4--5--|-1--2--6--2--|
|
|                              PM---------------|
| Q  Q  Q  Q    Q  Q  Q  E E   Q  Q  Q  Q    Q  Q  Q  Q
|-------------|--------------|-------------|-------------|
|-------------|--------------|-------------|-------------|
|-------------|--------------|-------------|-------------|
|-------------|--------------|-------------|-------------|
|----6--5-----|-4--5-----0h4-|-6--5--4--5--|-1--2--6--2--|
|-0--------0--|-------0------|-6--5--4--5--|-1--2--6--2--|


      PM|   PM        PM--|   PM          PM|   PM          PM---|
  E E E E E E E E   E E E E E E E E   E E E E E E E  E   E  E  E E  E E  E E
|-----------------|-----------------|------------------|---------------------|
|-----------------|-----------------|------------------|---------------------|
|-----------------|-----------------|------------------|---10----------------|
|-----------------|-----------------|-------------7h10-|------11-8-11p8-10p7-|
|-5h8-----6---9p6-|---------4---3---|-5h8-----6--------|---------------------|
|-----0-0---0-----|---4-7-4---4---7-|-----0-0---0------|---------------------|
|
|     PM|   PM        PM--|   PM          PM|   PM          PM---|
| E E E E E E E E   E E E E E E E E   E E E E E E E  E   E  E  E E  E E  E E
|-----------------|-----------------|------------------|---------------------|
|-----------------|-----------------|------------------|---------------------|
|-----------------|-----------------|------------------|----7----------------|
|-----------------|-----------------|-------------3h=7-|-------8-5--8p5--7p4-|
|-1h5-----6---6---|---------1---0---|-1h5-----6--------|---------------------|
|-----0-0---0---4-|---1-4-1---1---4-|-----0-0---0------|---------------------|


      PM|   PM        PM--|   PM          PM|   PM
  E E E E E E E E   E E E E E E E E   E E E E E E E  E    W
|-----------------|-----------------|-------------------|------|
|-----------------|-----------------|-------------------|------|
|-----------------|-----------------|-------------------|------|
|-----------------|-----------------|-------------7h10--|------|
|-5h8-----6---9p6-|---------4---3---|-1h5-----6---------|------|
|-----0-0---0-----|---4-7-4---4---7-|-----0-0---0-------|------|
|
|     PM|   PM        PM--|   PM          PM|   PM
| E E E E E E E E   E E E E E E E E   E E E E E E E  E
|-----------------|-----------------|-------------------|------|
|-----------------|-----------------|-------------------|------|
|-----------------|-----------------|-------------------|------|
|-----------------|-----------------|-------------3h=7--|------|
|-1h5-----6---6---|---------1---0---|-5h8-----6---------|------|
|-----0-0---0---4-|---1-4-1---1---4-|-----0-0---0-------|------|


    E E E E E E E E   E E E E E E E E   E E E E E E E E
||------------------|-----------------|-----------------|
||o-----------------|-----------------|-----------------|
||------------------|-----------------|-----------------|
||------------------|-----------------|-----------------|
||o-9-----9-----9---|---9-----5---5---|-5---8---8---8---|
||----0-0---0-0---0-|-0---0-0---0---0-|---0---0---0---0-|
|
|   E E E E E E E E   E E E E E E E E   E E E E E E E E
||------------------|-----------------|-----------------|
||o-----------------|-----------------|-----------------|
||------------------|-----------------|-----------------|
||------------------|-----------------|-----------------|
||o-5-----5-----5---|---5-----1---1---|-1---4---4---4---|
||----0-0---0-0---0-|-0---0-0---0---0-|---0---0---0---0-|


  E E E E E E E E   E E E E E E E E   E E E E E E E E
|-----------------|-----------------|------------------||
|-----------------|-----------------|-----------------o||
|-----------------|-----------------|------------------||
|-----------------|-----------------|------------------||
|-9-----9-----9---|---9-----5---5---|-5---1---1---1---o||
|---0-0---0-0---0-|-0---0-0---0---0-|---0---0---0---0--||
|
| E E E E E E E E   E E E E E E E E   E E E E E E E E
|-----------------|-----------------|------------------||
|-----------------|-----------------|-----------------o||
|-----------------|-----------------|------------------||
|-----------------|-----------------|------------------||
|-5-----5-----5---|---5-----1---1---|-1---------------o||
|---0-0---0-0---0-|-0---0-0---0---0-|---0-4-0-4-0-4-0--||


  E E E E E E E E   E W          +E  E E E E E E E   E E  H.
|-----------------|------------|-------------------|------------|
|-----------------|------------|-------------------|------------|
|-----------------|------------|-------------------|------------|
|-----------------|------------|-------------------|------------|
|-5-----5-----5---|---1--------|-(1)-5-----5-----5-|------4-----|
|---0-0---0-0---0-|-0-1--------|-(1)---0-0---0-0---|-0-0--4-----|
|
| E E E E E E E E   E W          +E  E E E E E E E   E E  H.
|-----------------|------------|-------------------|------------|
|-----------------|------------|-------------------|------------|
|-----------------|------------|-------------------|------------|
|-----------------|------------|-------------------|------------|
|-8-----8-----8---|------------|-----8-----8-----8-|------------|
|---0-0---0-0---0-|-0-8--------|-(8)---0-0---0-0---|-0-0-11-----|


                                       H
                                       |
                                       /

  Q.    Q.   Q.     Q.   E E E Q.      Q.   E E E E E   E E E E Q.    Q.
|-----------------|------------------|----------------|--------------------|
|-----------------|------------------|----------------|--------------------|
|-----------------|------------------|----------------|--------------------|
|-----------------|------------------|----------------|--------------------|
|-3b4---3----1----|-0----------3b4r==|=0--------------|--------------------|
|-----------------|------0-0-0-------|------0-0-0-4h5-|-0-5h7-0-7b8---7----|
|
| Q.    Q.   Q.     Q.   E E E Q.      Q.   E E E E E   E E E E Q.    Q.
|-----------------|------------------|----------------|--------------------|
|-----------------|------------------|----------------|--------------------|
|-----------------|------------------|----------------|--------------------|
|-----------------|------------------|----------------|--------------------|
|-3b4---3----1----|-0----------3b4r==|=0--------------|--------------------|
|-----------------|------0-0-0-------|------0-0-0-4h5-|-0-5h7-0-7b8---7----|


  E E E Q.    Q.     E E E E E E E E   E Q.    Q.   E   E E Q.    Q.
|------------------|-----------------|----------------|-----------------|
|------------------|-----------------|----------------|-----------------|
|------------------|-----------------|----------------|-----------------|
|------------------|-----------------|----------------|-----------------|
|------------------|-----------------|----------------|-----3b4r==0-----|
|-0-0-0-4b5r==1----|-0-0-0-4h5-0-5h7-|-0-7b8---7----0-|-0-0-------------|
|
| E E E Q.    Q.     E E E E E E E E   E Q.    Q.   E   E E Q.    Q.
|------------------|-----------------|----------------|-----------------|
|------------------|-----------------|----------------|-----------------|
|------------------|-----------------|----------------|-----------------|
|------------------|-----------------|----------------|-----------------|
|------------------|-----------------|----------------|-----3b4r==0-----|
|-0-0-0-4b5r==1----|-0-0-0-4h5-0-5h7-|-0-7b8---7----0-|-0-0-------------|


  E E E E E E E E   E Q.    Q.   E   E E Q.    Q.     E E E E E E E E
|-----------------|----------------|----------------|-----------------|
|-----------------|----------------|----------------|-----------------|
|-----------------|----------------|----------------|-----------------|
|-----------------|----------------|----------------|-----------------|
|-----------------|----------------|----------------|-----------------|
|-0-0-0-4h5-0-5h7-|-0-7b8---7----0-|-0-0-4b5r==1----|-0-0-0-4h5-0-5h7-|
|
| E E E E E E E E   E Q.    Q.   E   E E Q.    Q.     E E E E E E E E
|-----------------|----------------|----------------|-----------------|
|-----------------|----------------|----------------|-----------------|
|-----------------|----------------|----------------|-----------------|
|-----------------|----------------|----------------|-----------------|
|-----------------|----------------|----------------|-----------------|
|-0-0-0-4h5-0-5h7-|-0-7b8---7----0-|-0-0-4b5r==1----|-0-0-0-4h5-0-5h7-|


  Gtr III
  E  H..             +Q     H.
|-----------------|--------------------|
|-----------------|--------------------|
|---11------------|-(11)---10----------|
|-----------------|--------------------|
|-----------------|--------------------|
|-----------------|--------------------|
|
| Gtr IV
| E  Q.    Q.   E     E  E  Q.    Q.
|-----------------|--------------------|
|-----------------|--------------------|
|-----------------|--------------------|
|-----------------|--------------------|
|-----------------|---------3b4r==0----|
|-0--7b8---7----0-|---0--0-------------|


   +Q.      H        +E     +H         H
|------------------------|--------------------|
|----------14-------(14)-|-(14)-------13------|
|-(10)-------------------|--------------------|
|------------------------|--------------------|
|------------------------|--------------------|
|------------------------|--------------------|
|
|   E  E E  E E E E   E      E  Q.     Q.   E
|------------------------|--------------------|
|------------------------|--------------------|
|------------------------|--------------------|
|------------------------|--------------------|
|------------------------|--------------------|
|---0--0-0--4h5-0-5h==7--|---0--7b8----7----0-|


   +H.             Q        +H.            Q      E  E    E  E  E   E  E  E
|-----------------15b17--|-(15)-----------14---|-17-14---13-----------------|
|-(13)-------------------|---------------------|------------16-14--13-------|
|------------------------|---------------------|----------------------15-14-|
|------------------------|---------------------|----------------------------|
|------------------------|---------------------|----------------------------|
|------------------------|---------------------|----------------------------|
|
|   E  E Q.    Q.            E  E E E E E  E E    E  Q.         Q.        E
|------------------------|---------------------|----------------------------|
|------------------------|---------------------|----------------------------|
|------------------------|---------------------|----------------------------|
|------------------------|---------------------|----------------------------|
|------------------------|---------------------|----------------------------|
|---0--0-4b5r==1---------|---0--0-0-4h5-0--5h7-|--0--7b8--------7---------0-|


   E  E  E    E  E  E   E  E    E  E  E  E  E  Q.
|----------------------------|------------------------|
|-------------------------14-|-13-11-10---------------|
|-11------------11-10--------|----------11-10-11------|
|----13-11---10--------13----|------------------------|
|----------------------------|------------------------|
|----------------------------|------------------------|
|
|  E  E  Q.         Q.          E  E  E  E  E  E  E E
|----------------------------|------------------------|
|----------------------------|------------------------|
|----------------------------|------------------------|
|----------------------------|------------------------|
|--------3b4r=======0--------|------------------------|
|--0--0----------------------|--0--0--0--4h=5--0--5h7-|


  Gtr I
               PM-------------------|
  E Q.    Q.   E   +Q   Q.   Q.     Q.   Q.  Q.
|----------------|----------------|-------------|
|----------------|----------------|-------------|
|----------------|----------------|-------------|
|----------------|----------------|------1h==2--|
|--------------5-|-(5)--4----1----|-2----1h==2--|
|-0-7b8---7----5-|-(5)--4----1----|-2-----------|
|
| Gtr II
|              PM-------------------|
| E Q.    Q.   E   +Q   Q.   Q.     Q.   Q.  Q.
|----------------|----------------|-------------|
|----------------|----------------|-------------|
|----------------|----------------|-------------|
|----------------|----------------|------1h==2--|
|--------------5-|-(5)--4----1----|-2----1h==2--|
|-0-7b8---7----5-|-(5)--4----1----|-2-----------|


    PM|    PM|   PM--|   PM|   PM  PM    PM  PM  PM  PM
  E E E  E E E E E   E E E E E E E E   E E E E E E E E
|------------------|-----------------|-----------------|
|------------------|-----------------|-----------------|
|------------------|-----------------|-----------------|
|------------------|-----------------|-----------------|
|-5------5-----9---|---9-------------|-----------------|
|---0-0----0-0---0-|-0---0-0-8-0-8-0-|-7-0-4-0-4-0-4-0-|
|
| PM
| Q   H.             H       Q   Q     Q   Q   Q   Q
|------------------|-----------------|-----------------|
|------------------|-----------------|-----------------|
|------------------|---------6---6---|-5---2---2---2---|
|------------------|-----------------|-----------------|
|-0----------------|---------4---4---|-3---0---0---0---|
|-0----------------|-----------------|-----------------|


      PM|   PM|    PM--|    PM|   PM  PM    PM  PM  PM  PM
    E E E E E E  E E   E  E E E E E E E   E E E E E E E E
||-------------------|------------------|-----------------|
||o------------------|------------------|-----------------|
||-------------------|------------------|-----------------|
||-------------------|------------------|-----------------|
||o-5-----5------9---|----9-------------|-----------------|
||----0-0---0-0----0-|-0----0-0-8-0-8-0-|-7-0-4-0-4-0-4-0-|
|
|   E E E E E E  E E   E  E E E E E E E   E E E E E E E E
||-------------------|------------------|-----------------|
||o------------------|------------------|-----------------|
||-------------------|------------------|-----------------|
||-------------------|------------------|-----------------|
||o-8-----8-----12---|---12-----4---4---|-3---0---0---0---|
||----0-0---0-0----0-|-0----0-0---0---0-|---4---4---4---4-|


  Gtrs I, II
  E E E E E E Q.     Q.   E E E Q.     Q.   Q.
|------------------|-----------------|----------||
|------------------|-----------------|---------o||
|-------------7----|-6----------4----|-3--------||
|------------------|-----------------|------2---||
|-4-----5-----5----|-4----------2----|-1----2--o||
|---0-0---0-0------|------0-0-0------|----------||


  Gtr I
                                                             PM---|
                                                                  |----3----|
  H    H      W                     +H      H      H    Q.   E.   Q Q Q Q Q Q
|-----------|---------------------|--------------|--------------|-------------|
|-----------|---------------------|--------------|--------------|-------------|
|------8----|---------------------|--------------|-8------------|-----1-------|
|-----------|---------------------|--------------|--------------|-1---1-------|
|-1S===6----|-0-------------------|-(0)-----1S===|=6----0----0--|-1-0---2-1-0-|
|-1---------|-0-------------------|-(0)-----1----|------0----0--|---0---2-1-0-|
|
| Gtr II
|                                                            PM---|
|                              |----3-----|                       |----3----|
| H    H      Q.   +E. +E. +E. Q     Q  Q Q H      H    Q.   E.   Q Q Q Q Q Q
|-----------|---------------------|--------------|--------------|-------------|
|-----------|---------------------|--------------|--------------|-------------|
|------8----|------------------8--|--7--7-6------|-8------------|-----1-------|
|-----------|---------------------|--------------|--------------|-1---1-------|
|-1S===6----|-0----(0)-(0)-(0)-6--|--5--5-4-1S===|=6----0----0--|-1-0---2-1-0-|
|-1---------|-0----(0)-(0)-(0)----|---------1----|------0----0--|---0---2-1-0-|


                                                                     PM   PM
  H    H      W                     +H      H      H    W          E Q  E E
|-----------|---------------------|--------------|---------------|-------------|
|-----------|---------------------|--------------|---------------|-------------|
|------8----|---------------------|--------------|-8-------------|-------------|
|-----------|---------------------|--------------|---------------|-1-----------|
|-1S===6----|-0-------------------|-(0)-----1S===|=6----0--------|-1-0----0----|
|-1---------|-0-------------------|-(0)-----1----|------0--------|---0----0----|
|
|                                                                    PM   PM
|                              |----3-----|
| H    H      Q.   +E. +E. +E. Q     Q  Q Q H      H    W          E Q  E E
|-----------|---------------------|--------------|---------------|-------------|
|-----------|---------------------|--------------|---------------|-------------|
|------8----|------------------8--|--7--7-6------|-8-------------|-------------|
|-----------|---------------------|--------------|---------------|-1-----------|
|-1S===6----|-0----(0)-(0)-(0)-6--|--5--5-4-1S===|=6----0--------|-1-0----0----|
|-1---------|-0----(0)-(0)-(0)----|---------1----|------0--------|---0----0----|


    Gtrs I, II
                     |------3------|                    |------3------|
    H    H      H    Q Q Q   Q Q Q Q H      H    H      Q Q Q Q Q Q   Q
||------------|------------|--------------|-----------|-------------|----||
||o-----------|------------|--------------|-----------|-------------|---o||
||-------3----|-2----------|-3------------|-----------|-------------|----||
||------------|------1-2-1-|-1-2-1-0------|-----------|-------1-----|----||
||o-1----1----|-0----1-2-1-|---2-1-0------|------1----|-------1-2-1-|-0-o||
||--1---------|------------|---------4----|-3---------|-0-1-0---2-1-|-0--||



Duration Legend
---------------
W - whole; H - half; Q - quarter; E - 8th; S - 16th; T - 32nd; X - 64th; a - acciaccatura
+ - note tied to previous; . - note dotted; .. - note double dotted
Uncapitalized letters represent notes that are staccato (1/2 duration)
Irregular groupings are notated above the duration line
Duration letters will always appear directly above the note/fret number it represents the
duration for.  Duration letters with no fret number below them represent rests.  Multi-
bar rests are notated in the form Wxn, where n is the number of bars to rest for.  Low
melody durations appear below the staff

Tablature Legend
----------------
 h   - hammer-on
 p   - pull-off
 b   - bend
 pb  - pre-bend
 r   - bend release (if no number after the r, then release immediately)
 /\  - slide into or out of (from/to "nowhere")
 s   - legato slide
 S   - shift slide
 - natural harmonic
[n]  - artificial harmonic
n(n) - tapped harmonic
 ~   - vibrato
 tr  - trill
 T   - tap
 TP  - trem. picking
 PM  - palm muting
\n/  - tremolo bar dip; n = amount to dip
 \n  - tremolo bar down
 n/  - tremolo bar up
/n\  - tremolo bar inverted dip
 =   - hold bend; also acts as connecting device for hammers/pulls
 <> - volume swell (louder/softer)
 x   - on rhythm slash represents muted slash
 o   - on rhythm slash represents single note slash

Misc Legend
-----------
 |  - bar
||  - double bar
||o - repeat start
o|| - repeat end
*|  - double bar (ending)
 :  - bar (freetime)
 $  - Segno
 &  - Coda
Tempo markers -  = BPM(8/16=s8/s16), where s8 = swing 8ths, s16 = swing 16ths

Добавлено: 07.06.2012
Другие материалы по этой песне:

Страница создана 03.03.2012
http://primanota.ru/job-for-a-cowboy/reduced-to-mere-filth-chords.htm
Привет, Гость.
Предлагаем пройти революционный курс по гитаре.
Подарок от PrimaNota.Ru, забирай!