PrimaNota.ru - самый крупный в мире бесплатный архив песенных текстов, аккордов, табулатур и нот


Job For A Cowboy - Martyrdom Unsealed - текст песни, таба, видео

Регистрация Запомнить меня
Войти через:  Facebook Google Twitter Vk Yandex Mail.ru

Job For A Cowboy - Martyrdom Unsealed - текст песни, таба, видео

Печатать
Просмотров: 103
Уроки эстрадного вокала в Санкт-Петербурге
hope you like it. All comments are wellcome

4x
|---------------------------------------------------------|
|---------------------------------------------------------|
|---------------------------------------------------------|
|---------------------------------------------------------|
|6---5/6---6---5/6---9---6---5---6---5/6---6---5/6---4*---|
|--0-----0---0-----0---0---0---0---0-----0---0-----0------|


2x (0:16)
|---------------------------------------------------------|
|---------------------------------------------------------|
|---------------------------------------------------------|
|-----------------------------5---------------------------|
|5---6/7\5-4-4-5-5-5---6/7\5--5-0-0-----------------------|
|--0-------4-4-5-5---0----------0-0-----------------------|


2x (0:24)
|---------------------------------------------------------|
|---------------------------------------------------------|
|---------------------------------------------------------|
|---------------------------------------------------------|
|------------------------4-----5-----7-----8--------------|
|5-5-5-5-0-0-4-4-4-4-0-0---0-0---0-0---0-0----------------|


2x (0:30)
|---------------------------------------------------------|
|---------------------------------------------------------|
|---------------------------------------------------------|
|5-----------4--------------------------------------------|
|5-----------4-----------4-----5-----7-----8--------------|
|--------0-0---------0-0---0-0---0-0---0-0----------------|


4x (0:36)
|---------------------------------------------------------|
|---------------------------------------------------------|
|------6--5--5/6-6\5--------------------------------------|
|6--5----------------6--5--1--2-2-1-----------------------|
|------4--3--3/4-4\3----------------0-0-------------------|
|6--5----------------6--5--1--2-2-1-0-0-------------------|


4x (1:02)
|---------------------------------------------------------|
|---------------------------------------------------------|
|---------------------------------------------------------|
|---------------------------------------------------------|
|/6----\3----/5----\1------0--0--0--0---------------------|
|/6----\3----/5----\1------0--0--0--0---------------------|


4x (1:15)
|---------------------------------------------------------|
|---------------------------------------------------------|
|---------------------------------------------------------|
|/6----\3----/5----\1-------------------------------------|
|--------------------------0--0--0--0---------------------|
|/6----\3----/5----\1------0--0--0--0---------------------|


4x (1:29)   (a & b)    (solo...)

|---------------------------------------------------------|
|---------------------------------------------------------|
|---------------------------------------------------------|
|-----------------2/5-------------------------------------| a
|----5-7-5-0---------------0-0-0------5-7-5-0-------------|
|3-0--------------2/5------0-0-0--3-0---------------------|

|---------------------------------------------------------|
|---------------------------------------------------------|
|---------------------------------------------------------|
|-----------------2/5-------------------------------------| b
|----5-7-5-0---------------0-0-0----0-0--0-0--------------|
|3-0--------------2/5------0-0-0----0-0--0-0--------------|



solo... (1:41)

|--------------------------------------------------------------------------|
|20*-----------------------------------------------------------------------|
|--------------------------------------------------------------------------|
|--------------------------------------------------------------------------|
|--------------------------------------------------------------------------|
|--------------------------------------------------------------------------|


|--------------------------------------------------------------------------|
|--------------------------------------------------------------------------|
|19-17-16------- 19-17-16--------19-17-16--------19-17-16------------------|
|---------19-17-----------19-17-----------19-17-----------19-17-16*--------|
|--------------------------------------------------------------------------|
|--------------------------------------------------------------------------|


|--------------------------------------------------------------------------|
|--------------------------------------------------------------------------|
|19-17-16------- 19-17-16--------19-17-16--------19-17-16------------------|
|---------19-17-----------19-17-----------19-17-----------19-17-16*--------|
|--------------------------------------------------------------------------|
|--------------------------------------------------------------------------|


|--------------------------------------------------------------------------|
|--------------------------------------------------------------------------|
|17-17-17-17-14-14-14-14-16-16-16-16-17-17-17-17-20-20-20-20-20-21*--------|
|--------------------------------------------------------------------------|
|--------------------------------------------------------------------------|
|--------------------------------------------------------------------------|

2x (1:55)
|---------------------------------------------------------|
|---------------------------------------------------------|
|---------------------------------------------------------|
|---------------------------------------------------------|
|------------------------4-----5-----7-----8--------------|
|5-5-5-5-0-0-4-4-4-4-0-0---0-0---0-0---0-0----------------|


2x (2:00)
|---------------------------------------------------------|
|---------------------------------------------------------|
|---------------------------------------------------------|
|5-----------4--------------------------------------------|
|5-----------4-----------4-----5-----7-----8--------------|
|--------0-0---------0-0---0-0---0-0---0-0----------------|


4x (2:06)
|---------------------------------------------------------|
|---------------------------------------------------------|
|---------------------------------------------------------|
|---------------------------------------------------------|
|/6----\3----/5----\1------0--0--0--0---------------------|
|/6----\3----/5----\1------0--0--0--0---------------------|



3x (2:19)
|---------------------------------------------------------|
|---------------------------------------------------------|
|---------------------------------------------------------|
|/6----\3----/5----\1-------------------------------------|
|--------------------------0--0--0--0---------------------|
|/6----\3----/5----\1------0--0--0--0---------------------|



|---------------------------------------------------------|
|---------------------------------------------------------|
|---------------------------------------------------------|
|/6----\3----/5----\1-------------------------------------|
|---------------------------------------------------------|
|/6----\3----/5----\1-------------------------------------|
Добавлено: 05.06.2012
Другие материалы по этой песне:
  • Аккорды и текст

Страница создана 05.06.2012
http://primanota.ru/job-for-a-cowboy/martyrdom-unsealed-chords.htm
Привет, Гость.
Предлагаем пройти революционный курс по гитаре.
Подарок от PrimaNota.Ru, забирай!