PrimaNota.ru - самый крупный в мире бесплатный архив песенных текстов, аккордов, табулатур и нот


Job For A Cowboy - Entities - текст песни, таба, видео

Регистрация Запомнить меня
Войти через:  Facebook Google Twitter Vk Yandex Mail.ru

Job For A Cowboy - Entities - текст песни, таба, видео

Печатать
Просмотров: 126
                               ENITITIES SOLO
                              Job For A Cowboy
                                (2006 DEMO)

Transcribed by Jonathan Casper (confinedforever)

Gtr 1 & 2 - Tuning Drop A# - (A# F A# D# G C)
Tempo = 160

I'VE SPENT A LONG TIME ON THIS AND I KNOW ITS RIGHT!!


 GTR 1
|----------------------|------------------------|----------------------|
|----------------------|------------------------|----------------------|
|----------------------|------------------------|----------------------|
|----------------------|------------------------|----------------------|
|----------------------|------------------------|----------------------|
|--5-5-5-5-5-5-5-5-5---|--5-5-5--8-8-8--7-7-7---|--4-4-4-4-4-4-4-4-4---|
   * * * * * * * * *      * * *  * * *  * * *      * * * * * * * * *

 GTR 2
|----------------------|------------------------------|--------------------|
|----------------------|------------------------------|--------------------|
|----------------------|------------------------------|--------------------|
|----------------------|------------------------------|--------------------|
|----------------------|------------------------------|--------------------|
|--8-8-8-8-8-8-8-8-8---|--8-8-8--11-11-11--10-10-10---|-7-7-7-7-7-7-7-7-7--|
   * * * * * * * * *      * * *  *  *  *   *  *  *      * * * * * * * * *
 GTR 1
|----------------------|---------------------|------------------------|
|----------------------|---------------------|------------------------|
|---/12--11--16--15~---|-------/11~------15--|--14--------------------|
|----------------------|---------------------|------------------------|
|----------------------|---------------------|------------------------|
|----------------------|---------------------|------------------------|
                                         /-3          
 GTR 2
|----------------------|---------------------|------------------------|
|----------------------|---------------------|------------------------|
|---/16--15--19--18~---|---------------------|------------------------|
|----------------------|---------------------|------------------------|
|----------------------|---------------------|------------------------|
|----------------------|--5-5-5-5-5-5-5-5-5--|--5-5-5--8-8-8--7-7-7---|
                          * * * * * * * * *     * * *  * * *  * * * 
 GTR 1
|---------------------|---------------------|
|---------------------|---------------------|
|--20------19---------|--16------15---------|
|---------------------|---------------------|
|---------------------|---------------------|
|---------------------|---------------------|
  \-2/\-2/\-1/\-1/      \-3/\-3/

 GTR 2
|---------------------|---------------------|
|---------------------|---------------------|
|---------------------|---------------------|
|---------------------|---------------------|
|---------------------|---------------------|
|--4-4-4-4-4-4-4-4-4--|---------------------|
   * * * * * * * * *

 GTR 1
|---------/18--17-----|----17-18-22-18-17---17-18-21-18-17--|
|---------------------|--20---------------20----------------|
|---------------------|-------------------------------------|
|---------------------|-------------------------------------|
|---------------------|-------------------------------------|
|---------------------|-------------------------------------|

 GTR 2
|---------------------|-------------------------------------|
|---------------------|-------------------------------------|
|---------------------|-------------------------------------|
|---------------------|-------------------------------------|
|---------------------|-------------------------------------|
|--5-5-5-5-5-5-5-5-5--|--5-5-5-5-5--7-7-7--8-8-8------------|
   * * * * * * * * *     * * * * *  * * *  * * *

 GTR 1
|--18-17-16----------16-17-18-17-16----------16-17---|
|-----------18-17-18----------------18-17-18---------|
|----------------------------------------------------|
|----------------------------------------------------|
|----------------------------------------------------|
|----------------------------------------------------|

 GTR 2
|----------------------------------------------------|
|----------------------------------------------------|
|----------------------------------------------------|
|----------------------------------------------------|
|----------------------------------------------------|
|--4-4-4-4-4-4-4-4-4---------------------------------|
   * * * * * * * * *

 GTR 1
|--18-17-16----------16-17-18-17-16----------16-17---|
|-----------18-17-18----------------18-17-18---------|
|----------------------------------------------------|
|----------------------------------------------------|
|----------------------------------------------------|
|----------------------------------------------------|

 GTR 1
|--17-14----------14-17-14----------14-17-14---------|
|--------16----16----------16----16------------------|
|-----------17----------------17---------------------|
|----------------------------------------------------|
|----------------------------------------------------|
|----------------------------------------------------|

 GTR 2
|----------------------------------------------------|
|----------------------------------------------------|
|----------------------------------------------------|
|----------------------------------------------------|
|----------------------------------------------------|
|--5-5-5-5-5-5-5-5-5---------------------------------|
   * * * * * * * * *

 GTR 1
|--17-14----------14-17-14----------14-17-14---------|
|--------16----16----------16----16------------------|
|-----------17----------------17---------------------|
|----------------------------------------------------|
|----------------------------------------------------|
|----------------------------------------------------|

 GTR 2
|----------------------------------------------------|
|----------------------------------------------------|
|----------------------------------------------------|
|----------------------------------------------------|
|----------------------------------------------------|
|------------5-5-5---8-8-8---7-7-7-------------------|
             * * *   * * *   * * * 

 GTR 1
|--16-13----------13-16-13----------13-16-13---------|
|--------15----15----------15----15------------------|
|-----------16----------------16---------------------|
|----------------------------------------------------|
|----------------------------------------------------|
|----------------------------------------------------|

 GTR 2
|----------------------------------------------------|
|----------------------------------------------------|
|----------------------------------------------------|
|----------------------------------------------------|
|--4-------------------------------------------------|
|--4-------------------------------------------------|
  
 GTR 1 
|--18--18-17\15-17-15\14--|--15--14\12-14-12\11-12-11---|
|-------------------------|-----------------------------|
|-------------------------|-----------------------------|
|-------------------------|-----------------------------|
|-------------------------|-----------------------------|
|-------------------------|-----------------------------|

 GTR 2
|-------------------------|-----------------------------|
|-------------------------|-----------------------------|
|-------------------------|-----------------------------|
|-------------------------|-----------------------------|
|-------------------------|-----------------------------|
|--5-5-5-5-5-5-5-5-5------|--5-5-5--8-8-8--7-7-7--------|
   * * * * * * * * *         * * *  * * *  * * *

 GTR 1 
|--21--20-21-20\18-20-18\--|--17--18-17\15-17-15\14-13--|
|--------------------------|----------------------------|
|--------------------------|----------------------------|
|--------------------------|----------------------------|
|--------------------------|----------------------------|
|--------------------------|----------------------------|

 GTR 2
|--------------------------|----------------------------|
|--------------------------|----------------------------|
|--------------------------|----------------------------|
|--------------------------|----------------------------|
|--4----------------5--4---|--1-------------0-----------|
|--4----------------5--4---|--1-------------0-----------|

  GTR 1
|--------------13-17-13----------13-17-13----------|
|-----------15----------14----14----------14-------|
|--------14----------------15----------------15----|
|-----15-------------------------------------------|
|--17----------------------------------------------|
|--------------------------------------------------|  

 GTR 2
|--------------------------------------------------|
|--------------------------------------------------|
|--------------------------------------------------|
|--------------------------------------------------|
|--------------------------------------------------|
|--5-5-5----5-5-5----5-5-5----5-5-5----------------|
   * * *    * * *    * * *    * * *        

  GTR 1
|--------------13-17-13----------13-17-13----------|
|-----------15----------14----14----------14-------|
|--------14----------------15----------------15----|
|-----15-------------------------------------------|
|--17----------------------------------------------|
|--------------------------------------------------|  

GTR 2
|--------------------------------------------------|
|--------------------------------------------------|
|--------------------------------------------------|
|--------------------------------------------------|
|--------------------------------------------------|
|--5-5-5----5-5-5----8-8-8----7-7-7----------------|
   * * *    * * *    * * *    * * *

 GTR 1
|--------------15-19-15----------15-19----------15---|
|-----------17----------17----17-------17----17------|
|--------16----------------16-------------16---------|
|-----17---------------------------------------------|
|--19------------------------------------------------|
|----------------------------------------------------|

 GTR 2
|--------------------------------------------------|
|--------------------------------------------------|
|--------------------------------------------------|
|--------------------------------------------------|
|--------------------------------------------------|
|--4-4-4----4-4-4----4-4-4----4-4-4----------------|
   * * *    * * *    * * *    * * *

 GTR 1
|--19-15----------15-19-15----------15-19-15---------|
|--------17----17----------17----17----------17------|
|-----------16----------------16----------------16---|
|----------------------------------------------------|
|----------------------------------------------------|
|----------------------------------------------------|

 GTR 2
|--------------------------------------------------|
|--------------------------------------------------|
|--------------------------------------------------|
|--------------------------------------------------|
|--------------------------------------------------|
|--1-1-1----1-1-1----0-0-0----0-0-0----------------|
   * * *    * * *    * * *    * * *
  GTR 1
|--------------13-17-13----------13-17-13----------|
|-----------15----------14----14----------14-------|
|--------14----------------15----------------15----|
|-----15-------------------------------------------|
|--17----------------------------------------------|
|--------------------------------------------------|  

 GTR 2
|--------------------------------------------------|
|--------------------------------------------------|
|--------------------------------------------------|
|--------------------------------------------------|
|--------------------------------------------------|
|--5-5-5----5-5-5----5-5-5----5-5-5----------------|
   * * *    * * *    * * *    * * *        

  GTR 1
|--------------13-17-13----------13-17-13----------|
|-----------15----------14----14----------14-------|
|--------14----------------15----------------15----|
|-----15-------------------------------------------|
|--17----------------------------------------------|
|--------------------------------------------------|  

GTR 2
|--------------------------------------------------|
|--------------------------------------------------|
|--------------------------------------------------|
|--------------------------------------------------|
|--------------------------------------------------|
|--5-5-5----5-5-5----8-8-8----7-7-7----------------|
   * * *    * * *    * * *    * * *

 GTR 1
|--------------15-19-15----------15-19----------15---|
|-----------17----------17----17-------17----17------|
|--------16----------------16-------------16---------|
|-----17---------------------------------------------|
|--19------------------------------------------------|
|----------------------------------------------------|

 GTR 2
|--------------------------------------------------|
|--------------------------------------------------|
|--------------------------------------------------|
|--------------------------------------------------|
|--------------------------------------------------|
|--4-4-4----4-4-4----4-4-4----4-4-4----------------|
   * * *    * * *    * * *    * * *

 GTR 1
|--19-15----------15-19-15----------15-19-15---------|
|--------17----17----------17----17----------17------|
|-----------16----------------16----------------16---|
|----------------------------------------------------|
|----------------------------------------------------|
|----------------------------------------------------|

 GTR 2
|--------------------------------------------------|
|--------------------------------------------------|
|--------------------------------------------------|
|--------------------------------------------------|
|--------------------------------------------------|
|--1-1-1----1-1-1----0-0-0----0-0-0----------------|
   * * *    * * *    * * *    * * *

 GTR 1
|--------------------------11----11-13--|--11-13-14-13-14-16-16--|--19---|
|--------------------12-14----14--------|------------------------|-------|
|---------------------------------------|------------------------|-------|
|-----------10-12-13--------------------|------------------------|-------|
|--10-12-13-----------------------------|------------------------|-------|
|---------------------------------------|------------------------|-------|
                                         GTR 3 HARMONY
                                        |--14-16-17-16-17-19-19--|--22---|
                                        |------------------------|-------|
                                        |------------------------|-------|
                                        |------------------------|-------|
                                        |------------------------|-------|
                                        |------------------------|-------|
 GTR 2
|---------------------|---------------------------|---------------------|
|---------------------|---------------------------|---------------------|
|---------------------|---------------------------|---------------------|
|---------------------|---------------------------|---------------------|
|---------------------|---------------------------|---------------------|
|--5-5-5-5-5-5-5-5-5--|--5-5-5-5-5--8-8-8--7-7-7--|--4-4-4-4-4-4-4-4-4--|
   * * * * * * * * *     * * * * *  * * *  * * *

 GTR 2
|--------------------------------------------------|
|--------------------------------------------------|
|--------------------------------------------------|
|--------------------------------------------------|
|--12\---------------------------------------------|
|--12\---------------------------------------------|

 PLEASE RATE AND COMMENT!!

Duration Legend
---------------
W - whole; H - half; Q - quarter; E - 8th; S - 16th; T - 32nd; X - 64th; a - acciaccatura
+ - note tied to previous; . - note dotted; .. - note double dotted
Uncapitalized letters represent notes that are staccato (1/2 duration)

Tablature Legend
----------------
 h   - hammer-on
 p   - pull-off
 b   - bend
 pb  - pre-bend
 r   - bend release (if no number after the r, then release immediately)
 /\  - slide into or out of (from/to "nowhere")
 s   - legato slide
 S   - shift slide
  - natural harmonic
[n]  - artificial harmonic
n(n) - tapped harmonic
 ~   - vibrato
 tr  - trill
 T   - tap
 TP  - trem. picking
 *   - palm muting
\n/  - tremolo bar dip; n = amount to dip
 \n  - tremolo bar down
 n/  - tremolo bar up
/n\  - tremolo bar inverted dip
 =   - hold bend; also acts as connecting device for hammers/pulls
 <>  - volume swell (louder/softer)
 x   - on rhythm slash represents muted slash
 o   - on rhythm slash represents single note slash

Misc Legend
-----------
 |  - bar
||  - double bar
||o - repeat start
o|| - repeat end
*|  - double bar (ending)
 :  - bar (freetime)
 $  - Segno
 &  - Coda
Tempo markers -  = BPM(8/16=s8/s16), where s8 = swing 8ths, s16 = swing 16ths
Добавлено: 05.06.2012
Другие материалы по этой песне:

Страница создана 24.03.2012
http://primanota.ru/job-for-a-cowboy/entities-chords.htm
Привет, Гость.
Предлагаем пройти революционный курс по гитаре.
Подарок от PrimaNota.Ru, забирай!