PrimaNota.ru - самый крупный в мире бесплатный архив песенных текстов, аккордов, табулатур и нот


Job For A Cowboy - Dead Stale Endings - таба, видео

Регистрация Запомнить меня
Войти через:  Facebook Google Twitter Vk Yandex Mail.ru

Job For A Cowboy - Dead Stale Endings - таба, видео

Печатать
Просмотров: 103
Уроки эстрадного вокала в Санкт-Петербурге
As recorded by Job For A Cowboy
                             (From the 2004 EP DEMO)

Words and Music by Job For A Cowboy
Transcribed by jonathan rose

Gtr I (C G C F A D) - 'Left'
Gtr II (C G C F A D) - 'Right'
Gtr III (C G C F A D) - 'Gtr III'

 Intro
  Q=120
  Bb5A5 G5    D5    N.C.
 2/4         4/4
  Gtrs I, II
              PM--|   PM  PM|   PM|
  E. E. E     T T S S S S S S S S S S S S S S S
|---------||------------------------------------|
|---------||o-----------------------------------|
|---------||------------------------------------|
|-8--7--5-||------------------------------------|
|-8--7--5-||o-0-0-0-5---5-----1-----------------|
|-8--7--5-||--0-0-0---0---0-0---0-0-4p0-4p0-4p0-|


  D5    N.C.
  PM--|   PM  PM|   PM
  T T S S S S S S S S S S S S S S S    4x
|--------------------------------------||
|-------------------------------------o||
|---------------------7-7-7-6-6-6-6----||
|--------------------------------------||
|-0-0-0-5---5-----1---5-5-5-4-4-4-4---o||
|-0-0-0---0---0-0---0------------------||


  Q=100
  D5          EbD5            EbD5      EbD5
  Gtr I
  PM--------|     PM--------|     PM--|
  T T S T T S S S T T S T T S S S T T S S S
|-------------------------------------------|
|-------------------------------------------|
|-------------------------------------------|
|-------------------------------------------|
|-0-0-0-0-0-0-1-0-0-0-0-0-0-0-1-0-0-0-0-1-0-|
|-0-0-0-0-0-0-1-0-0-0-0-0-0-0-1-0-0-0-0-1-0-|
|
| Gtr II
| W
|-------------------------------------------|
|-------------------------------------------|
|-------------------------------------------|
|-------------------------------------------|
|-------------------------------------------|
|-------------------------------------------|


              EbD5          N.C.
  PM--------|     PM------|
  T T S T T S S S T T S T T S S S S S S S
|-------------------------------------------|
|-------------------------------------------|
|---------------------------7-7-7-6-6-6-6---|
|-------------------------------------------|
|-0-0-0-0-0-0-1-0-0-0-0-0-0-5-5-5-4-4-4-4---|
|-0-0-0-0-0-0-1-0-0-0-0-0-0-----------------|
|
| H                     S   S S S S S S S
|-------------------------------------------|
|-------------------------------------------|
|---------------------------7-7-7-6-6-6-6---|
|-------------------------------------------|
|---------------------------5-5-5-4-4-4-4---|
|-------------------------------------------|


   B r e a k d o w n!
    D5          EbD5            EbD5      EbD5
    Gtrs I, II
    PM--------|     PM--------|     PM--|
    T T S T T S S S T T S T T S S S T T S S S
||--------------------------------------------|
||o-------------------------------------------|
||--------------------------------------------|
||--------------------------------------------|
||o-0-0-0-0-0-0-1-0-0-0-0-0-0-0-1-0-0-0-0-1-0-|
||--0-0-0-0-0-0-1-0-0-0-0-0-0-0-1-0-0-0-0-1-0-|


              EbD5          N.C.
  PM--------|     PM------|
  T T S T T S S S T T S T T S S S S S S S   4x
|-------------------------------------------||
|------------------------------------------o||
|---------------------------7-7-7-6-6-6-6---||
|-------------------------------------------||
|-0-0-0-0-0-0-1-0-0-0-0-0-0-5-5-5-4-4-4-4--o||
|-0-0-0-0-0-0-1-0-0-0-0-0-0-----------------||


  N.C.                              D5    EbD5    Eb5 N.C.
                                    PM--|   PM--|
  S S S S S S S S S S S S S S S S   T T S E T T S E S S S S S S S S
|---------------------------------|---------------------------------|
|---------------------------------|---------------------------------|
|-------------------7-7-7-6-6-6-6-|-------------------7-7-7-6-6-6-6-|
|---------------------------------|---------------------------------|
|-------------------5-5-5-4-4-4-4-|-0-0-0-1-0-0-0-1---5-5-5-4-4-4-4-|
|-4p0-4p0-4p0-4p0-----------------|-0-0-0-1-0-0-0-1-----------------|


                                    D5    EbD5    EbD5
                                    PM--|   PM--|
  S S S S S S S S S S S S S S S S   T T S e T T S e H
|---------------------------------|----------------------|
|---------------------------------|----------------------|
|-------------------7-7-7-6-6-6-6-|----------------------|
|---------------------------------|-----------------0----|
|-------------------5-5-5-4-4-4-4-|-0-0-0-1-0-0-0-1-0----|
|-4p0-4p0-4p0-4p0-----------------|-0-0-0-1-0-0-0-1-0----|


  N.C.         D5                             N.C.                  D5
  Gtr I
               PM--------------------|
  H     H      T T S T T S T T S T T S H       H    H      H        H
|------------|------------------------------|------------|---------------|
|------------|------------------------------|------------|---------------|
|-7----10----|------------------------------|-10----7----|-6-------------|
|------------|-------------------------0----|------------|----------0----|
|-5-----8----|-0-0-0-0-0-0-0-0-0-0-0-0-0----|--8----5----|-4--------0----|
|------------|-0-0-0-0-0-0-0-0-0-0-0-0-0----|------------|----------0----|
|
| Gtr II
|              PM--------------------|
| H     H      T T S T T S T T S T T S H       H    H      H        H
|------------|------------------------------|------------|---------------|
|------------|------------------------------|------------|---------------|
|-7----10----|------------------------------|-10----7----|-6b6.5---------|
|------------|-------------------------0----|------------|----------0----|
|-5-----8----|-0-0-0-0-0-0-0-0-0-0-0-0-0----|--8----5----|-4b4.5----0----|
|------------|-0-0-0-0-0-0-0-0-0-0-0-0-0----|------------|----------0----|


  N.C.         D5                             N.C.
               PM--------------------|
  H     H      T T S T T S T T S T T S H       H    H      W
|------------|------------------------------|------------|----------|
|------------|------------------------------|------------|----------|
|-7----10----|------------------------------|-10----7----|-6--------|
|------------|-------------------------0----|------------|----------|
|-5-----8----|-0-0-0-0-0-0-0-0-0-0-0-0-0----|--8----5----|-4--------|
|------------|-0-0-0-0-0-0-0-0-0-0-0-0-0----|------------|----------|
|
|              PM--------------------|
| H     H      T T S T T S T T S T T S H       H    H      W
|------------|------------------------------|------------|----------|
|------------|------------------------------|------------|----------|
|-7----10----|------------------------------|-10----7----|-6b6.5----|
|------------|-------------------------0----|------------|----------|
|-5-----8----|-0-0-0-0-0-0-0-0-0-0-0-0-0----|--8----5----|-4b4.5----|
|------------|-0-0-0-0-0-0-0-0-0-0-0-0-0----|------------|----------|


   B r e a k d o w n!
    D5
    Gtrs I, II
    PM--------|   PM----|    PM--|   PM---------------
    T T S T T S S T T S T S. T T S S T T T T T T T T
||---------------------------------------------------|
||o--------------------------------------------------|
||---------------------------------------------------|
||---------------------------------------------------|
||o-0-0-0-0-0-0---0-0-0-0----0-0-0---0-0-0-0-0-0-0-0-|
||--0-0-0-0-0-0---0-0-0-0----0-0-0---0-0-0-0-0-0-0-0-|


 -----------|   PM----|    PM--|   PM------------|
  T T S T T S S T T S T S. T T S S T T T T T T T T
|--------------------------------------------------|
|--------------------------------------------------|
|--------------------------------------------------|
|--------------------------------------------------|
|-0-0-0-0-0-0---0-0-0-0----0-0-0---0-0-0-0-0-0-0-0-|
|-0-0-0-0-0-0---0-0-0-0----0-0-0---0-0-0-0-0-0-0-0-|


  D5
  PM--------|   PM----|    PM--|   PM---------------
  T T S T T S S T T S T S. T T S S T T T T T T T T
|--------------------------------------------------|
|--------------------------------------------------|
|--------------------------------------------------|
|--------------------------------------------------|
|-0-0-0-0-0-0---0-0-0-0----0-0-0---0-0-0-0-0-0-0-0-|
|-0-0-0-0-0-0---0-0-0-0----0-0-0---0-0-0-0-0-0-0-0-|


                            N.C.
 -----------|   PM----------|
  T T S T T S S T T T T T T S S S S S S S S
|---------------------------------------------||
|--------------------------------------------o||
|---------------------------7-7-7-7-6-6-6-6---||
|---------------------------------------------||
|-0-0-0-0-0-0---0-0-0-0-0-0-5-5-5-5-4-4-4-4--o||
|-0-0-0-0-0-0---0-0-0-0-0-0-------------------||


  N.C.              D5                        N.C.
                    PM--------|   PM--------|
  H.      +Q        T T S T T S E T T S T T S S S S S E
|---------------||--------------------------------------|
|---------------||o-------------------------------------|
|---------------||--------------------------------------|
|---------------||--------------------------------------|
|-7-------(7)\--||o-0-0-0-0-0-0---0-0-0-0-0-0-6-5-6-5---|
|---------------||--0-0-0-0-0-0---0-0-0-0-0-0---------8-|


  D5                        N.C.
  PM--------|   PM--------|
  T T S T T S E T T S T T S S S S S  E
|----------------------------------------||
|---------------------------------------o||
|----------------------------------------||
|----------------------------------------||
|-0-0-0-0-0-0---0-0-0-0-0-0-8-7-8-7-----o||
|-0-0-0-0-0-0---0-0-0-0-0-0---------10---||


    D5                        N.C.
    Gtr I
    PM--------|   PM--------|
    T T S T T S E T T S T T S S S S S  E
||---------------------------------------|
||o--------------------------------------|
||---------------------------------------|
||---------------------------------------|
||o-0-0-0-0-0-0---0-0-0-0-0-0-6-5-6-5----|
||--0-0-0-0-0-0---0-0-0-0-0-0----------8-|
|
|   Gtr II
|   PM--------|   PM--------|
|   T T S T T S E T T S T T S S S S S  E
||---------------------------------------|
||o--------------------------------------|
||---------------------------------------|
||---------------------------------------|
||o-0-0-0-0-0-0---0-0-0-0-0-0-9-8-9-8----|
||--0-0-0-0-0-0---0-0-0-0-0-0---------11-|


  D5                        N.C.
  PM--------|   PM--------|
  T T S T T S E T T S T T S  S  S  S  S  E   4x
|--------------------------------------------||
|-------------------------------------------o||
|--------------------------------------------||
|--------------------------------------------||
|-0-0-0-0-0-0---0-0-0-0-0-0--8--7--8--7-----o||
|-0-0-0-0-0-0---0-0-0-0-0-0-------------10---||
|
| PM--------|   PM--------|
| T T S T T S E T T S T T S  S  S  S  S  E   4x
|--------------------------------------------||
|-------------------------------------------o||
|--------------------------------------------||
|--------------------------------------------||
|-0-0-0-0-0-0---0-0-0-0-0-0-12-11-12-11-----o||
|-0-0-0-0-0-0---0-0-0-0-0-0-------------14---||


   B r e a k d o w n!
    Q=90
    D5                                                          N.C.
    PM--|   PM--|   PM--|   PM----------------|   PM--|   PM--|  ~~~~~~~
    T T S E T T S E T T S E T T S T T S   T T S E T T S E T T S  E E  E   4x
||--------------------------------------|---------------------------------||
||o-------------------------------------|--------------------------------o||
||--------------------------------------|---------------------------------||
||--------------------------------------|------------------------8-7------||
||o-0-0-0---0-0-0---0-0-0---0-0-0-0-0-0-|-0-0-0---0-0-0---0-0-0-------9--o||
||--0-0-0---0-0-0---0-0-0---0-0-0-0-0-0-|-0-0-0---0-0-0---0-0-0-----------||
|
|   PM--|   PM--|   PM--|   PM----------------|   PM--|   PM--|  ~~~~~~~
|   T T S E T T S E T T S E T T S T T S   T T S E T T S E T T S  E E  E   4x
||--------------------------------------|---------------------------------||
||o-------------------------------------|--------------------------------o||
||--------------------------------------|-----------------------10-9------||
||--------------------------------------|----------------------------11---||
||o-0-0-0---0-0-0---0-0-0---0-0-0-0-0-0-|-0-0-0---0-0-0---0-0-0----------o||
||--0-0-0---0-0-0---0-0-0---0-0-0-0-0-0-|-0-0-0---0-0-0---0-0-0-----------||


  Q=95
  D5    N.C.         D5    N.C.
  PM                 PM
  E     S  S S S S S E     S  S S S S S
|---------------------------------------|
|---------------------------------------|
|---------------------------------------|
|------------6------------------5-------|
|-0-----5--4---5-4-0-0-----4--3---4-3-0-|
|-0------------------0------------------|
|
| PM--|              PM--|
| T T S Q.           T T S Q.
|---------------------------------------|
|---------------------------------------|
|---------------------------------------|
|---------------------------------------|
|-0-0-0--------------0-0-0--------------|
|-0-0-0--------------0-0-0--------------|


  D5    N.C.         D5    N.C.    D5    N.C.
  PM                 PM--|         PM--|
  E     S  S S S S S T T S T T T T T T S T T T T
|--------------------------------------------------|
|--------------------------------------------------|
|--------------------------------------------------|
|------------6-------------------------------------|
|-0-----5--4---5-4-0-0-0-0-5h8p5p0-0-0-0-4h7p4p0---|
|-0------------------0-0-0---------0-0-0-----------|
|
| PM--|              PM--|         PM--|
| T T S Q.           T T S T T T T T T S T T T T
|--------------------------------------------------|
|--------------------------------------------------|
|--------------------------------------------------|
|--------------------------------------------------|
|-0-0-0--------------0-0-0-5h8p5p0-0-0-0-4h7p4p0---|
|-0-0-0--------------0-0-0---------0-0-0-----------|


  D5N.C.        D5N.C.          D5N.C.        D5    N.C.     D5    N.C.
  PM            PM              PM            PM--|          PM--|
  E S S S S S S E S S S S S S   E S S S S S S T T S T  T T T T T S T  T T T
|-----------------------------|---------------------------------------------|
|-----------------------------|---------------------------------------------|
|-----------------------------|---------------------------------------------|
|-------6-------------5-------|-------6-------------------------------------|
|-0-5-4---5-4-0-0-4-3---4-3-0-|-0-5-4---5-4-0-0-0-0-8h12p8p0-0-0-0-7h10p7p0-|
|-0-------------0-------------|-0-------------0-0-0----------0-0-0----------|
|
| PM            PM              PM            PM--|          PM--|
| E S S S S S S E S S S S S S   E S S S S S S T T S T  T T T T T S T  T T T
|-----------------------------|---------------------------------------------|
|-----------------------------|---------------------------------------------|
|-----------------------------|---------------------------------------------|
|-------6-------------5-------|-------6-------------------------------------|
|-0-5-4---5-4-0-0-4-3---4-3-0-|-0-5-4---5-4-0-0-0-0-8h12p8p0-0-0-0-7h10p7p0-|
|-0-------------0-------------|-0-------------0-0-0----------0-0-0----------|


 B r e a k d o w n!
  D5
  PM------------------------------|     PM-----------
  T T S T T S T T S T T S T T T T T T S T T S T T S
|---------------------------------------------------|
|---------------------------------------------------|
|---------------------------------------------------|
|---------------------------------------------------|
|-0-0-0-0-0-0-0-0-0-0-0-0-0-0---0-0---0-0-0-0-0-0-0-|
|-0-0-0-0-0-0-0-0-0-0-0-0-0-0---0-0---0-0-0-0-0-0-0-|
|
| PM------------------------------|     PM-----------
| T T S T T S T T S T T S T T T T T T S T T S T T S
|---------------------------------------------------|
|---------------------------------------------------|
|---------------------------------------------------|
|---------------------------------------------------|
|-0-0-0-0-0-0-0-0-0-0-0-0-0-0---0-0---0-0-0-0-0-0-0-|
|-0-0-0-0-0-0-0-0-0-0-0-0-0-0---0-0---0-0-0-0-0-0-0-|


                          N.C.
 -----------------------|  TP TP
  T T S T T S T T S T T S  E  E S  S  E
|-----------------------------------------|
|-----------------------------------------|
|-----------------------------------------|
|-------------------------12-10-----------|
|-0-0-0-0-0-0-0-0-0-0-0-0-------8-10--7---|
|-0-0-0-0-0-0-0-0-0-0-0-0-----------------|
|
|-----------------------|  TP TP
| T T S T T S T T S T T S  E  E S  S  E
|-----------------------------------------|
|-----------------------------------------|
|-----------------------------------------|
|--------------------------8--7-----------|
|-0-0-0-0-0-0-0-0-0-0-0-0-------5--7-[4]--|
|-0-0-0-0-0-0-0-0-0-0-0-0-----------------|


    D5
    PM------------------------------|     PM-----------
    T T S T T S T T S T T S T T T T T T S T T S T T S
||----------------------------------------------------|
||o---------------------------------------------------|
||----------------------------------------------------|
||----------------------------------------------------|
||o-0-0-0-0-0-0-0-0-0-0-0-0-0-0---0-0---0-0-0-0-0-0-0-|
||--0-0-0-0-0-0-0-0-0-0-0-0-0-0---0-0---0-0-0-0-0-0-0-|
|
|   PM------------------------------|     PM-----------
|   T T S T T S T T S T T S T T T T T T S T T S T T S
||----------------------------------------------------|
||o---------------------------------------------------|
||----------------------------------------------------|
||----------------------------------------------------|
||o-0-0-0-0-0-0-0-0-0-0-0-0-0-0---0-0---0-0-0-0-0-0-0-|
||--0-0-0-0-0-0-0-0-0-0-0-0-0-0---0-0---0-0-0-0-0-0-0-|


                            N.C.
 ---------|     PM--------|  TP TP
  T T T T T T S T T S T T S  E  E S  S  E     3x
|---------------------------------------------||
|--------------------------------------------o||
|---------------------------------------------||
|---------------------------12-10-------------||
|-0-0---0-0---0-0-0-0-0-0-0-------8-10--7----o||
|-0-0---0-0---0-0-0-0-0-0-0-------------------||
|
|---------|     PM--------|  TP TP
| T T T T T T S T T S T T S  E  E S  S  E     3x
|---------------------------------------------||
|--------------------------------------------o||
|---------------------------------------------||
|----------------------------8--7-------------||
|-0-0---0-0---0-0-0-0-0-0-0-------5--7-[4]---o||
|-0-0---0-0---0-0-0-0-0-0-0-------------------||


  Q=125
  D5     N.C.
  Gtr I
   S   S S  S S S S S S S S S S S S S     S  S S S S S S S S S S S S S S S
|-------------------------------------|------------------------------------|
|-------------------------------------|------------------------------------|
|-------------------------------------|------------------------------------|
|--3p==0-3p=0-3p0-3p0-2p0-2p0-2p0-2p0-|---5p=0-5p0-5p0-5p0-3p0-3p0-2p0-2p0-|
|-------------------------------------|------------------------------------|
|-------------------------------------|------------------------------------|
|
| Gtr II
|                                         <
|  PM--|
|  T T S H..                              W
|-------------------------------------|------------------------------------|
|-------------------------------------|------------------------------------|
|-------------------------------------|------------------------------------|
|-------------------------------------|--<5>-------------------------------|
|--0-0-0------------------------------|------------------------------------|
|--0-0-0------------------------------|------------------------------------|
|
| Gtr III
|  <
|  W                                     +W
|-------------------------------------|------------------------------------|
|-------------------------------------|------------------------------------|
|-------------------------------------|------------------------------------|
|-------------------------------------|------------------------------------|
|-------------------------------------|------------------------------------|
|-12----------------------------------|-(12)-------------------------------|


  S S S S S S S S S S S S S S S S    S  S S S S S S S S S S S S S S S
|---------------------------------|--------------------------------------|
|---------------------------------|--------------------------------------|
|---------------------------------|--------------------------------------|
|-3p0-3p0-3p0-3p0-2p0-2p0-2p0-2p0-|--5p=0-5p0-5p0-5p0-3p0-3p0-2p0-2p0----|
|---------------------------------|--------------------------------------|
|---------------------------------|--------------------------------------|
|
| S S S S S S S S S S S S S S S S    S  S S S S S S S S S S S S S S S
|---------------------------------|--------------------------------------|
|---------------------------------|--------------------------------------|
|---------------------------------|--------------------------------------|
|-7p0-7p0-7p0-7p0-5p0-5p0-5p0-5p0-|--8p=0-8p0-8p0-8p0-7p0-7p0-5p0-5p0----|
|---------------------------------|--------------------------------------|
|---------------------------------|--------------------------------------|
|
| W                                 +W
|---------------------------------|--------------------------------------|
|---------------------------------|--------------------------------------|
|---------------------------------|--------------------------------------|
|---------------------------------|--------------------------------------|
|---------------------------------|--------------------------------------|
|-7-------------------------------|-(7)----------------------------------|


  N.C.
  Gtr I
  S S S S S S S S S S S S S S S S    S  S S S S S S S S S S S S S S S
|---------------------------------|-----------------------------------|
|---------------------------------|-----------------------------------|
|---------------------------------|-----------------------------------|
|-3p0-3p0-3p0-3p0-2p0-2p0-2p0-2p0-|--5p=0-5p0-5p0-5p0-3p0-3p0-2p0-2p0-|
|---------------------------------|-----------------------------------|
|---------------------------------|-----------------------------------|
|
| Gtr II
| S S S S S S S S S S S S S S S S    S  S S S S S S S S S S S S S S S
|---------------------------------|-----------------------------------|
|---------------------------------|-----------------------------------|
|---------------------------------|-----------------------------------|
|-7p0-7p0-7p0-7p0-5p0-5p0-5p0-5p0-|--8p=0-8p0-8p0-8p0-7p0-7p0-5p0-5p0-|
|---------------------------------|-----------------------------------|
|---------------------------------|-----------------------------------|
|
| W                                 +W
|---------------------------------|-----------------------------------|
|---------------------------------|-----------------------------------|
|---------------------------------|-----------------------------------|
|---------------------------------|-----------------------------------|
|---------------------------------|-----------------------------------|
|-8-------------------------------|-(8)-------------------------------|


   S S S S S S S S S S S S S S S S     S  S S S S S S S S S S S S S S S
|----------------------------------|---------------------------------------|
|----------------------------------|---------------------------------------|
|----------------------------------|---------------------------------------|
|--3p0-3p0-3p0-3p0-2p0-2p0-2p0-2p0-|---5p=0-5p0-5p0-5p0-3p0-3p0-2p0-2p0----|
|----------------------------------|---------------------------------------|
|----------------------------------|---------------------------------------|
|
|  S S S S S S S S S S S S S S S S     S  S S S S S S S S S S S S S S S
|----------------------------------|---------------------------------------|
|----------------------------------|---------------------------------------|
|----------------------------------|---------------------------------------|
|--7p0-7p0-7p0-7p0-5p0-5p0-5p0-5p0-|---8p=0-8p0-8p0-8p0-7p0-7p0-5p0-5p0----|
|----------------------------------|---------------------------------------|
|----------------------------------|---------------------------------------|
|
|  W                                  +W
|----------------------------------|---------------------------------------|
|----------------------------------|---------------------------------------|
|----------------------------------|---------------------------------------|
|----------------------------------|---------------------------------------|
|----------------------------------|---------------------------------------|
|-10-------------------------------|-(10)----------------------------------|


  N.C.
   S S S S S S S S S S S S S S S S     S  S S S S S S S S S S S S S S S
|----------------------------------|------------------------------------|
|----------------------------------|------------------------------------|
|----------------------------------|------------------------------------|
|--8p0-8p0-8p0-8p0-7p0-7p0-7p0-7p0-|---8p=0-8p0-8p0-8p0-7p0-7p0-7p0-7p0-|
|----------------------------------|------------------------------------|
|----------------------------------|------------------------------------|
|
|  S S S S S S S S S S S S S S S S     S  S S S S S S S S S S S S S S S
|----------------------------------|------------------------------------|
|----------------------------------|------------------------------------|
|----------------------------------|------------------------------------|
|--3p0-3p0-3p0-3p0-2p0-2p0-2p0-2p0-|---3p=0-3p0-3p0-3p0-2p0-2p0-2p0-2p0-|
|----------------------------------|------------------------------------|
|----------------------------------|------------------------------------|
|
|  W                                  +W
|----------------------------------|------------------------------------|
|----------------------------------|------------------------------------|
|----------------------------------|------------------------------------|
|----------------------------------|------------------------------------|
|----------------------------------|------------------------------------|
|-12-------------------------------|-(12)-------------------------------|


  S S S S S S S S S S S S S S S S    S  S S S S S S S S S S S S S S S
|---------------------------------|--------------------------------------|
|---------------------------------|--------------------------------------|
|---------------------------------|--------------------------------------|
|-8p0-8p0-8p0-8p0-7p0-7p0-7p0-7p0-|--8p=0-8p0-8p0-8p0-7p0-7p0-7p0-7p0----|
|---------------------------------|--------------------------------------|
|---------------------------------|--------------------------------------|
|
| S S S S S S S S S S S S S S S S    S  S S S S S S S S S S S S S S S
|---------------------------------|--------------------------------------|
|---------------------------------|--------------------------------------|
|---------------------------------|--------------------------------------|
|-3p0-3p0-3p0-3p0-2p0-2p0-2p0-2p0-|--3p=0-3p0-3p0-3p0-2p0-2p0-2p0-2p0----|
|---------------------------------|--------------------------------------|
|---------------------------------|--------------------------------------|
|
| W                                 +W
|---------------------------------|--------------------------------------|
|---------------------------------|--------------------------------------|
|---------------------------------|--------------------------------------|
|---------------------------------|--------------------------------------|
|---------------------------------|--------------------------------------|
|-8-------------------------------|-(8)----------------------------------|


  N.C.
  Gtrs I, II
   S S S S S S S S S S S S S S S S     S  S S S S S S S S S S S S S S S
|----------------------------------|------------------------------------|
|----------------------------------|------------------------------------|
|----------------------------------|------------------------------------|
|----------------------------------|------------------------------------|
|--4p0-4p0-4p0-4p0-4p0-4p0-4p0-4p0-|---4p=0-4p0-4p0-4p0-4p0-4p0-4p0-4p0-|
|----------------------------------|------------------------------------|
|
| Gtr III
|  W                                  +W
|----------------------------------|------------------------------------|
|----------------------------------|------------------------------------|
|----------------------------------|------------------------------------|
|----------------------------------|------------------------------------|
|----------------------------------|------------------------------------|
|-11-------------------------------|-(11)-------------------------------|


    S  S S S S S S S S S S S S S S S     S  S S S S S S S S S S S S S S S
|------------------------------------|---------------------------------------|
|------------------------------------|---------------------------------------|
|------------------------------------|---------------------------------------|
|------------------------------------|---------------------------------------|
|---4p=0-4p0-4p0-4p0-4p0-4p0-4p0-4p0-|---4p=0-4p0-4p0-4p0-4p0-4p0-4p0-4p0----|
|------------------------------------|---------------------------------------|
|
|  +W                                   +W
|------------------------------------|---------------------------------------|
|------------------------------------|---------------------------------------|
|------------------------------------|---------------------------------------|
|------------------------------------|---------------------------------------|
|------------------------------------|---------------------------------------|
|-(11)-------------------------------|-(11)----------------------------------|


   Outro
    Q=90
    D5          N.C.            D5          N.C.
    Gtr I
    PM--------|                 PM--------|
    T T S T T S T T T T T T T T T T S T T S T T T T T T T T
||----------------------------------------------------------|
||o---------------------------------------------------------|
||----------------------------------------------------------|
||----------------------------------------------------------|
||o-0-0-0-0-0-0-5p0-5p0-5p0-5p0-0-0-0-0-0-0-4p0-4p0-4p0-4p0-|
||--0-0-0-0-0-0-----------------0-0-0-0-0-0-----------------|
|
|   PM--------|                 PM--------|
|   T T S T T S T T T T T T T T T T S T T S T T T T T T T T
||----------------------------------------------------------|
||o---------------------------------------------------------|
||----------------------------------------------------------|
||----------------------------------------------------------|
||o-0-0-0-0-0-0-5p0-5p0-5p0-5p0-0-0-0-0-0-0-4p0-4p0-4p0-4p0-|
||--0-0-0-0-0-0-----------------0-0-0-0-0-0-----------------|


  D5          N.C.
  PM--------|
                                     |-3--|
  T T S T T S T T T T T T T T   E  E S  S S E  5x
|----------------------------------------------||
|---------------------------------------------o||
|----------------------------------------------||
|-----------------------------/12-10-----------||
|-0-0-0-0-0-0-5p0-5p0-5p0-5p0--------8h10p8-7-o||
|-0-0-0-0-0-0----------------------------------||
|
| PM--------|
|                                    |-3--|
| T T S T T S T T T T T T T T   E  E S  S S E  5x
|----------------------------------------------||
|---------------------------------------------o||
|----------------------------------------------||
|------------------------------/8--7-----------||
|-0-0-0-0-0-0-5p0-5p0-5p0-5p0--------5h=7p5-4-o||
|-0-0-0-0-0-0----------------------------------||


  N.C.
  +W           +W           +W           +W           Wx4
|------------|------------|------------|------------|--------*|
|------------|------------|------------|------------|--------*|
|------------|------------|------------|------------|--------*|
|------------|------------|------------|------------|--------*|
|-(7)--------|-(7)--------|-(7)--------|-(7)--------|--------*|
|------------|------------|------------|------------|--------*|
|
| +W           +W           +W           +W           Wx4
|------------|------------|------------|------------|--------*|
|------------|------------|------------|------------|--------*|
|------------|------------|------------|------------|--------*|
|------------|------------|------------|------------|--------*|
|-(4)--------|-(4)--------|-(4)--------|-(4)--------|--------*|
|------------|------------|------------|------------|--------*|


Duration Legend
---------------
W - whole; H - half; Q - quarter; E - 8th; S - 16th; T - 32nd; X - 64th; a - acciaccatura
+ - note tied to previous; . - note dotted; .. - note double dotted
Uncapitalized letters represent notes that are staccato (1/2 duration)
Irregular groupings are notated above the duration line
Duration letters will always appear directly above the note/fret number it represents the
duration for.  Duration letters with no fret number below them represent rests.  Multi-
bar rests are notated in the form Wxn, where n is the number of bars to rest for.  Low
melody durations appear below the staff

Tablature Legend
----------------
 h   - hammer-on
 p   - pull-off
 b   - bend
 pb  - pre-bend
 r   - bend release (if no number after the r, then release immediately)
 /\  - slide into or out of (from/to "nowhere")
 s   - legato slide
 S   - shift slide
  - natural harmonic
[n]  - artificial harmonic
n(n) - tapped harmonic
 ~   - vibrato
 tr  - trill
 T   - tap
 TP  - trem. picking
 PM  - palm muting
\n/  - tremolo bar dip; n = amount to dip
 \n  - tremolo bar down
 n/  - tremolo bar up
/n\  - tremolo bar inverted dip
 =   - hold bend; also acts as connecting device for hammers/pulls
 <>  - volume swell (louder/softer)
 x   - on rhythm slash represents muted slash
 o   - on rhythm slash represents single note slash

Misc Legend
-----------
 |  - bar
||  - double bar
||o - repeat start
o|| - repeat end
*|  - double bar (ending)
 :  - bar (freetime)
 $  - Segno
 &  - Coda
Tempo markers -  = BPM(8/16=s8/s16), where s8 = swing 8ths, s16 = swing 16ths


Добавлено: 24.03.2012
Другие материалы по этой песне:

Страница создана 21.03.2012
http://primanota.ru/job-for-a-cowboy/dead-stale-endings-chords.htm
Привет, Гость.
Предлагаем пройти революционный курс по гитаре.
Подарок от PrimaNota.Ru, забирай!