PrimaNota.ru - самый крупный в мире бесплатный архив песенных текстов, аккордов, табулатур и нот


Job For A Cowboy - Coalescing Prophesy - таба, видео

Регистрация Запомнить меня
Войти через:  Facebook Google Twitter Vk Yandex Mail.ru

Job For A Cowboy - Coalescing Prophesy - таба, видео

Печатать
Просмотров: 98
Coalescing Prophesy
By; Job for a Cowboy
Album; Genesis

Drop A# tuning


(0:00 - 0:12)
|------------------------------------------------|
|------------------------------------------------|
|------------------------------------------------|
|------------------------------------------------|
|-8-7-1-7-----8-7-1-7-----8-7-1--9-7-1--8-7-1-9--|
|10-9-1-9----10-9-1-9----10-9-1-11-9-1-10-9-1-9--|


(0:13 - 0:25)
|---------------------------------------------|
|---------------------------------------------|
|---------------------------------------------|
|---------------------------------333---------|
|333----333222----222333----333222---222333---|
|---111-------111-------111-------------------|


(0:26 - 0:41)
|---------------------------------------------|
|---------------------------------------------|
|---------------------------------------------|
|---------------------------------------------|
|-8--1---8--7--1--7---8--1---8--7--12--7---8--|
|10--1--10--9--1--9--10--1--10--9--14--9--10--|


(0:41 - 0:47)
|----------------------------------------------------|
|----------------------------------------------------|
|----------------------------------------------------|
|----------------------------------------------------|
|10-66--10-66--x-6-x-6-x-6--9-66--9-66--10-x-9-x-13--|
|----------------------------------------------------|


(0:47 - 0:54)
|------------------------------------|
|------------------------------------|
|------------------------------------|
|------------------------------------|
|10--6--9-9--6--12--10--12-13-12--9--|
|------------------------------------|


(0:55 - 1:05)
|--------------------------------------------------|
|--------------------------------------------------|
|--------------------------------------------------|
|8-44--8-44--x-4-x-4-x-4--7-44--7-44--10-x-9-x-13--|
|--------------------------------------------------|
|--------------------------------------------------|


(1:05 - 1:07)
|-----------|
|-----------|
|-----------|
|7--6--10~--|
|-----------|
|-----------|


(1:08 - 1:09)
|---------------------|
|---------------------|
|---------------------|
|---------------------|
|8--7--5--7--5--4--0--|
|8--7--5--7--5--4--0--|


(1:09 - 1:24)
|---------------------------|
|---------------------------|
|---------------------------|
|---------------------------|
|3--4--0-----3--4--0--8--7--|
|3--4--0-----3--4--0--8--7--|


(1:25 - 1:39)
|-------------------------------------|
|-------------------------------------|
|-------------------------------------|
|-------------------------------------|
|3--4--0-000-3-2---2---3--4--0--8--7--|
|3--4--0-000-----0-----3--4--0--8--7--|


(1:40 - 1:54)
|---------------------------------------------|
|---------------------------------------------|
|---------------------------------------------|
|---------------------------------------------|
|-8--0---8--7--0--7---8--0---8--7--12--7---8--|
|10--0--10--9--0--9--10--0--10--9--14--9--10--|


Pause for Solo lalalalalala

(1:55 - 2:06) Resume
|---------------------------------------------|
|---------------------------------------------|
|---------------------------------------------|
|---------------------------------------------|
|-8--1---8--7--1--7---8--1---8--7--12--7---8--|
|10--1--10--9--1--9--10--1--10--9--14--9--10--|


(2:06 - 2:20
|-------------------------------|
|-------------------------------|
|-------------------------------|
|-------------------------------|
|4---3---4---3---4---3-3-2-5-2--|
|-000-000-000-000-000--3-2-5-2--|


(2:21 - 2:37)
|------------------------------------|
|------------------------------------|
|------------------------------------|
|-------------------------3--2----1--|
|3-2-1--3-2---3-2-1--2-1--3--2-0--1--|
|3-2-1-----0--3-2-1-------3--2-0--1--|


(2:37 - 2:58)
|-----------------------------------------|
|-----------------------------------------|
|------------------------7----------------|
|8-555-7-55555-6-5-7-555---5-7-555-6-5-7--|
|-----------------------------------------|
|-----------------------------------------|


(2:58 - 3:01)
|-----------------------------------------|
|-----------------------------------------|
|------------------------6----------------|
|7-444-6-44444-5-4-6-444---4-6-444-5-4-6--|
|-----------------------------------------|
|-----------------------------------------|

(3:02 - 3:06)
|-----------------------------------------|
|-----------------------------------------|
|------------------------7----------------|
|8-555-7-55555-6-5-7-555---5-7-555-6-5-7--|
|-----------------------------------------|
|-----------------------------------------|


(3:07 - end of song)
|-----------------------------------------|
|-----------------------------------------|
|------------------------7----------------|
|8-000-7-00000-6-0-7-000---0-7-000-6-0-7--|
|-----------------------------------------|
|-----------------------------------------|


If you have any corrections email me at blackwood_evan@yahoo.com

keep it brutal
Добавлено: 28.07.2012
Другие материалы по этой песне:
  • Аккорды и текст

Страница создана 28.07.2012
http://primanota.ru/job-for-a-cowboy/coalescing-prophesy-chords.htm
Привет, Гость.
Предлагаем пройти революционный курс по гитаре.
Подарок от PrimaNota.Ru, забирай!