PrimaNota.ru - самый крупный в мире бесплатный архив песенных текстов, аккордов, табулатур и нот


Job For A Cowboy - Bearing The Serpents Lamb - текст песни, таба, видео

Регистрация Запомнить меня
Войти через:  Facebook Google Twitter Vk Yandex Mail.ru

Job For A Cowboy - Bearing The Serpents Lamb - текст песни, таба, видео

Печатать
Просмотров: 104
Bearing The Serpents Lamb
By Job For A Cowboy
Album:Genesis
Tuning:Bb F Bb Eb G C 
Gtr1
||--------------------------------||
||--------------------------------||
||--------------------------------||
||-2~---2-------------------------||
||-2~-----3-2-3-2---2-----1-------||
||-2~-------------5---5-2---5-1---||       
                                                       
|Gtr2                                                   
||--------------------------------||
||--------------------------------||
||--------------------------------||
||-2~-----------------------------||
||-2~---------------2-----1-------||
||-2~---2-------------5-2---5-1---||

Gtr1 + 2
||-----------------------------------------------------------||
||-----------------------------------------------------------||
||-----------------------------------------------------------||
||------2h5p2-------------5h8p5-------------2h5p2------------||
||-----------------------------------------------------------||
||--2-1-------5-2-5-2-5-4-------8-5-8-5-2-1-------5-2-5-2----||       
              . . . .           . . . .           . . . .

||----------------------------------||
||----------------------------------||
||----------------------------------||
||----------------------------------||
||-----2---2-3----------------------||
||-222---2-----1-11111111111111-----||
   ...   .       ..............       

Gtr1
||------------------------------------------------------------||
||------------------------------------------------------------||
||------------------------------------------------------------||
||------5h8p5-------------8h11p8-------------5h8p5------------||
||------------------------------------------------------------||
||--5-4-------8-5-8-5-8-7--------8-5-8-5-5-4-------8-5-8-5----||       
              . . . .            . . . .           . . . .

||----------------------------------||
||----------------------------------||
||----------------------------------||
||----------------------------------||
||-----2---2-3----------------------||
||-222---2-----1-11111111111111-----||
   ...   .       .............. 

Gtr2
||-----------------------------------------------------------||
||-----------------------------------------------------------||
||-----------------------------------------------------------||
||------2h5p2-------------5h8p5-------------2h5p2------------||
||-----------------------------------------------------------||
||--2-1-------5-2-5-2-5-4-------8-5-8-5-2-1-------5-2-5-2----||       
              . . . .           . . . .           . . . .

||----------------------------------||
||----------------------------------||
||----------------------------------||
||----------------------------------||
||-----2---2-3----------------------||
||-222---2-----1-11111111111111-----||
   ...   .       .............. 

Gtr1 + Gtr2
||----------------------------------------------------||
||----------------------------------------------------||
||----------------------------------------------------||
||----------------------------------------------------||
||-2-----2-----2-------1-----5-----5-----5-------4h7--||
||---2-2---2-2---2-2-5---5-----5-5---5-5---5-5-8------||
     . .   . .   . .           . .   . .   . . 

||-----------------------------------------------------||
||-----------------------------------------------------||
||-----------------------------------------------------||
||-----------------------------------------------------||
||-2-----2-----2-------1----5-------4h7-8--------7h10--||
||---2-2---2-2---2-2-5---5----5-5-8-------8-8-11-------||
     . .   . .   . .           

Gtr1
||------------------------------------------------------||
||------------------------------------------------------||
||------------------------------------------------------||
||------------------------------------------------------||
||-5-----5-----5-------4-----8-----8-----8--------7h10--||
||---5-5---5-5---5-5-8---8-----8-8---8-8---8-8-11-------||
     . .   . .   . .           . .   . .   . . 

||-----------------------------------------------------------||
||-----------------------------------------------------------||
||-----------------------------------------------------------||
||-----------------------------------------------------------||
||-5-----5-----5-------4----8--------7h10-11----------10h13--||
||---5-5---5-5---5-5-8---8----8-8-11---------11-11-14--------||
     . .   . .   . . 

Gtr2
||----------------------------------------------------||
||----------------------------------------------------||
||----------------------------------------------------||
||----------------------------------------------------||
||-2-----2-----2-------1-----5-----5-----5-------4h7--||
||---2-2---2-2---2-2-5---5-----5-5---5-5---5-5-8------||
     . .   . .   . .           . .   . .   . . 

||-----------------------------------------------------||
||-----------------------------------------------------||
||-----------------------------------------------------||
||-----------------------------------------------------||
||-2-----2-----2-------1----5-------4h7-8--------7h10--||
||---2-2---2-2---2-2-5---5----5-5-8-------8-8-11-------||
     . .   . .   . .    

Gtr1 + 2
||-----------------------------------------------||
||-----------------------------------------------||
||-4----4-----3----------------------------------||
||----------------4------5-----5-----5---4---8---||
||--2-2---2-2---2---2-5--------------------------||
||-------------------------5-5---5-5---5---5-----||          
    . .   . .   .   .      . .   . .   .   . 

||-----------------------------------------------||
||-----------------------------------------------||
||-4----4-----3----------3-----3-----2---2---2---||
||----------------4------------------------------||
||--2-2---2-2---2---2-5----1-1---1-1---1---1-----||
||-----------------------------------------------||          
    . .   . .   .   .      . .   . .   .   . 

Gtr1
||-----------------------------------------------||
||-----------------------------------------------||
||-7----7-----6----------------------------------||
||----------------7------8-----8-----8---7---11--||
||--5-5---5-5---5---5-8--------------------------||
||-------------------------8-8---8-8---8---8-----||          
    . .   . .   .   .      . .   . .   .   . 

||-----------------------------------------------||
||-----------------------------------------------||
||-7----7-----6----------6-----6-----5---5---5---||
||----------------7------------------------------||
||--5-5---5-5---5---5-8----4-4---4-4---4---4-----||
||-----------------------------------------------||          
    . .   . .   .   .      . .   . .   .   . 

Gtr2
||-----------------------------------------------||
||-----------------------------------------------||
||-4----4-----3----------------------------------||
||----------------4------5-----5-----5---4---8---||
||--2-2---2-2---2---2-5--------------------------||
||-------------------------5-5---5-5---5---5-----||          
    . .   . .   .   .      . .   . .   .   . 

||-----------------------------------------------||
||-----------------------------------------------||
||-4----4-----3----------3-----3-----2---2---2---||
||----------------4------------------------------||
||--2-2---2-2---2---2-5----1-1---1-1---1---1-----||
||-----------------------------------------------||          
    . .   . .   .   .      . .   . .   .   . 

Gtr1
||----------------------------------------------------||
||----------------------------------------------------||
||----------------------------------------------------||
||----------------------------------------------------||
||-2-----2-----2-------1-----5-----5-----5-------4h7--||
||---2-2---2-2---2-2-5---5-----5-5---5-5---5-5-8------||
     . .   . .   . .           . .   . .   . . 

||-----------------------------------------------------||
||-----------------------------------------------------||
||-----------------------------------------------------||
||-----------------------------------------------------||
||-2-----2-----2-------1----5-------4h7-8--------7h10--||
||---2-2---2-2---2-2-5---5----5-5-8-------8-8-11-------||
     . .   . .   . .    

Gtr2
||----------------------------------------------------||
||----------------------------------------------------||
||----------------------------------------------------||
||----------------------------------------------------||
||-2-----2-------------------5-----5------------------||
||---2-2---2-2-----------------5-5---5-5--------------||
     . .   . .                 . .   . .   

||-----------------------------------------------------||
||-----------------------------------------------------||
||-----------------------------------------------------||
||-----------------------------------------------------||
||-2-----2------------------5-------4h7-8--------7h10--||
||---2-2---2-2----------------5-5-8-------8-8-11-------||
     . .   . .

Gtr1
||------------------------------------------------------||
||------------------------------------------------------||
||------------------------------------------------------||
||------------------------------------------------------||
||-5-----5-----5-------4-----8-----8-----8--------7h10--||
||---5-5---5-5---5-5-8---8-----8-8---8-8---8-8-11-------||
     . .   . .   . .           . .   . .   . . 

||-----------------------------------------------------------||
||-----------------------------------------------------------||
||-----------------------------------------------------------||
||-----------------------------------------------------------||
||-5-----5-----5-------4----8--------7h10-11----------10h13--||
||---5-5---5-5---5-5-8---8----8-8-11---------11-11-14--------||
     . .   . .   . . 

Gtr2
||----------------------------------------------------||
||----------------------------------------------------||
||----------------------------------------------------||
||----------------------------------------------------||
||-2-----2-----2-------1-----5-----5-----5-------4h7--||
||---2-2---2-2---2-2-5---5-----5-5---5-5---5-5-8------||
     . .   . .   . .           . .   . .   . . 

||-----------------------------------------------------||
||-----------------------------------------------------||
||-----------------------------------------------------||
||-----------------------------------------------------||
||-2-----2-----2-------1----5-------4h7-8--------7h10--||
||---2-2---2-2---2-2-5---5----5-5-8-------8-8-11-------||
     . .   . .   . .           

Gtr1 + 2                                         x4
||-------------------------------------------------||
||o-----------------------------------------------o||
||-------------------------------------------------||
||------------------------------------------1h4----||
||o-----------2-3---3---3-------2-3-----2---------o||
||--2-222-222-----2---2---1-111-----111---1--------||
      ... ...     .   .     ...     ...   .

Gtr1 + 2
||-----------------------------------------------------------||
||-----------------------------------------------------------||
||-----------------------------------------------------------||
||------2h5p2-------------5h8p5-------------2h5p2------------||
||-----------------------------------------------------------||
||--2-1-------5-2-5-2-5-4-------8-5-8-5-2-1-------5-2-5-2----||       
              . . . .           . . . .           . . . .

||----------------------------------||
||----------------------------------||
||----------------------------------||
||----------------------------------||
||-----2---2-3----------------------||
||-222---2-----1-11111111111111-----||
   ...   .       ..............

Gtr1
||------------------------------------------------------------||
||------------------------------------------------------------||
||------------------------------------------------------------||
||------5h8p5-------------8h11p8-------------5h8p5------------||
||------------------------------------------------------------||
||--5-4-------8-5-8-5-8-7--------8-5-8-5-5-4-------8-5-8-5----||       
              . . . .            . . . .           . . . .

||----------------------------------||
||----------------------------------||
||----------------------------------||
||----------------------------------||
||-----2---2-3----------------------||
||-222---2-----1-11111111111111-----||
   ...   .       .............. 

Gtr2
||-----------------------------------------------------------||
||-----------------------------------------------------------||
||-----------------------------------------------------------||
||------2h5p2-------------5h8p5-------------2h5p2------------||
||-----------------------------------------------------------||
||--2-1-------5-2-5-2-5-4-------8-5-8-5-2-1-------5-2-5-2----||       
              . . . .           . . . .           . . . .

||----------------------------------||
||----------------------------------||
||----------------------------------||
||----------------------------------||
||-----2---2-3----------------------||
||-222---2-----1-11111111111111-----||
   ...   .       ..............

Gtr1 + 2
tremolo pick all                 x2                 
||---------------------------------||
||o-------------------------------o||
||---------------------------------||
||--------5------------------------||
||o----------3--2--4-----3--------o||
||--2--1--------------2-----2--1---||     

Gtr1
tremolo pick all                 x2                 
||---------------------------------||
||o-------------------------------o||
||---------------------------------||
||--------8------------------------||
||o----------6--5--7-----6--------o||
||--5--4--------------5-----5--4---|| 

Gtr2
tremolo pick all                 x2                 
||---------------------------------||
||o-------------------------------o||
||---------------------------------||
||--------5------------------------||
||o----------3--2--4-----3--------o||
||--2--1--------------2-----2--1---|| 

Gtr1 + 2                                     x3
||---------------------------------------------||
||o-------------------------------------------o||
||---------------------------------------------||
||----------2h5-4------------------------------||
||o-----2-------------------------------------o||
||--222---2-------000-000-2-000-000-1-000-000--||
    ...   .       ... ...   ... ...   ... ...

Gtr1 + 2                                     
||------------------------------||
||------------------------------||
||------------------------------||
||----------2h5-4---------------||
||------2-----------------------||
||--222---2-------000-000-2--1--||
    ...   .       ... ... 

Gtr1 + 2                                       x2
||---------------------------------------------||
||o--------------------------------------------||
||---------------------------------------------||
||---------------------------------------------||
||o--7-3---3---3-2---7---7---6---8---8---7-----||
||-------2---2-----2---0---0---0---0---0---10--|| 
         .   .     .   .   .   .   .   .

||-----------------------------------------------||
||----------------------------------------------o||
||-----------------------------------------------||
||-----------------------------------------------||
||---7-3---3---3-2---7---7---6---8---8---7------o||
||-------2---2-----2---0---0---0---0---0---10/---|| 
         .   .     .   .   .   .   .   .

Gtr1 + 2
||-----------------------------------------------||
||-----------------------------------------------||
||-----------------------------------------------||
||-7---------------------7-----------------------||
||---8---8---8-7-4---------8---8---8-7-4---------||
||-----0---0-----------------0---0-------0-0-0-0-||
       .   .                 .   .       . . . .

||--------------------------------------------------||
||--------------------------------------------------||
||--------------------------------------------------||
||-7------------------------------------------------||
||---8---8---8-7-4-----0h4-7-4---4---4-8-5---5---5--||
||-----0---0-------0-0---------0---0-------0---0----||
       .   .       . .         .   .       .   . 

||---------------------------------------------------||
||---------------------------------------------------||
||---------------------------------------------------||
||-7-----------------------7-------------------------||
||---8---8---8-7-4-----5h8---8---8---8-7-4-----------||
||-----0---0-------0-0---------0---0-------0-0-0-0---||
       .   .       . .         .   .       . . . .

||--------------------------------------------------||
||--------------------------------------------------||
||--------------------------------------------------||
||-7------------------------------------------------||
||---8---8---8-7-4-----0h4-7-4---4---4-8-5---5---5--||
||-----0---0-------0-0---------0---0-------0---0----||
       .   .       . .         .   .       .   .

||---------------------------------------------------------------||
||---------------------------------------------------------------||
||---------------------------------------------------------------||
||---------------------------------------------------------------||
||-5-----------------------5-----------------5---5-4---8---8-7---||                    
||---8-0-8-0-8-7-4-0-0-0-0---8-0-8-0-8-7-4-0---0-----0---0-------||
       .   .       . . . .     .   .       .   .     .   .

Gtr1
||-------------------------------------------------------------------||
||o-----------------------------------------------------------------o||
||-------------------------------------------------------------------||
||-------------------------------------------------------------------||
||o-5-----------------------5-----------------8---8-7---11---11-10--o||                    
||----8-0-8-0-8-7-4-0-0-0-0---8-0-8-0-8-7-4-0---0-----0----0---------||
        .   .       . . . .     .   .       .   .     .    .

Gtr2
||-----------------------------------------------------------------||
||o---------------------------------------------------------------o||
||-----------------------------------------------------------------||
||-----------------------------------------------------------------||
||o-5-----------------------5-----------------5---5-4---8---8-7---o||                    
||---8-0-8-0-8-7-4-0-0-0-0----8-0-8-0-8-7-4-0---0-----0---0--------||
       .   .       . . . .     .   .       .   .     .   .

Gtr1
||----------------------------||
||----------------------------||
||----------------------------||
||-4----------3----------5~---||
||-2----------1---4---1--3~---||
||----------------4---1-------||
              .   .   .                                       
Gtr2                                                
||-----------------------------------------------||
||-----------------------------------------------||
||-4----4-----3----------------------------------||
||----------------4------5-----5-----5---4---8---||
||--2-2---2-2---2---2-5--------------------------||
||-------------------------5-5---5-5---5---5-----||          
    . .   . .   .   .      . .   . .   .   . 

Gtr1 + 2
||-----------------------------------------------||
||-----------------------------------------------||
||-4----4-----3----------3-----3-----2---2---2---||
||----------------4------------------------------||
||--2-2---2-2---2---2-5----1-1---1-1---1---1-----||
||-----------------------------------------------||          
    . .   . .   .   .      . .   . .   .   . 

Gtr1
||-----------------------------------------------||
||-----------------------------------------------||
||-7----7-----6----------------------------------||
||----------------7------8-----8-----8---7---11--||
||--5-5---5-5---5---5-8--------------------------||
||-------------------------8-8---8-8---8---8-----||          
    . .   . .   .   .      . .   . .   .   . 

||-----------------------------------------------||
||-----------------------------------------------||
||-7----7-----6----------6-----6-----5---5---5---||
||----------------7------------------------------||
||--5-5---5-5---5---5-8----4-4---4-4---4---4-----||
||-----------------------------------------------||          
    . .   . .   .   .      . .   . .   .   . 

Gtr2
||-----------------------------------------------||
||-----------------------------------------------||
||-4----4-----3----------------------------------||
||----------------4------5-----5-----5---4---8---||
||--2-2---2-2---2---2-5--------------------------||
||-------------------------5-5---5-5---5---5-----||          
    . .   . .   .   .      . .   . .   .   . 

||-----------------------------------------------||
||-----------------------------------------------||
||-4----4-----3----------3-----3-----2---2---2---||
||----------------4------------------------------||
||--2-2---2-2---2---2-5----1-1---1-1---1---1-----||
||-----------------------------------------------||          
    . .   . .   .   .      . .   . .   .   . 

Gtr1 + 2
||-----------------------------------------------||
||-----------------------------------------------||
||-4----4-----3----------------------------------||
||----------------4------5-----5-----5---4---8---||
||--2-2---2-2---2---2-5--------------------------||
||-------------------------5-5---5-5---5---5-----||          
    . .   . .   .   .      . .   . .   .   . 

||-----------------------------------------------||
||-----------------------------------------------||
||-4----4-----3----------3-----3-----2---2---2---||
||----------------4------------------------------||
||--2-2---2-2---2---2-5----1-1---1-1---1---1-----||
||-----------------------------------------------||          
    . .   . .   .   .      . .   . .   .   . 

Gtr1
||-----------------------------------------------||
||-----------------------------------------------||
||-7----7-----6----------------------------------||
||----------------7------8-----8-----8---7---11--||
||--5-5---5-5---5---5-8--------------------------||
||-------------------------8-8---8-8---8---8-----||          
    . .   . .   .   .      . .   . .   .   . 

||---------------------------------------||
||---------------------------------------||
||-7----7-----6--------------------------||
||----------------7------5-----4---------||
||--5-5---5-5---5---5-8--3-5-2-2-4-1-2---||
||-------------------------5-2---4-1-2---||          
    . .   . .   .   .      . .   . . 

Gtr2
||-----------------------------------------------||
||-----------------------------------------------||
||-4----4-----3----------------------------------||
||----------------4------5-----5-----5---4---8---||
||--2-2---2-2---2---2-5--------------------------||
||-------------------------5-5---5-5---5---5-----||          
    . .   . .   .   .      . .   . .   .   .  

||---------------------------------------||
||---------------------------------------||
||-4----4-----3--------------------------||
||----------------4------5-----4---------||
||--2-2---2-2---2---2-5--3-5-2-2-4-1-2---||
||-------------------------5-2---4-1-2---||          
    . .   . .   .   .      . .   . . 


Добавлено: 21.04.2012
Другие материалы по этой песне:

Страница создана 04.04.2012
http://primanota.ru/job-for-a-cowboy/bearing-the-serpents-lamb-chords.htm
Привет, Гость.
Предлагаем пройти революционный курс по гитаре.
Подарок от PrimaNota.Ru, забирай!