PrimaNota.ru - самый крупный в мире бесплатный архив песенных текстов, аккордов, табулатур и нот


Joaquin Sabina - Una Cancin Para La Magdalena - таба, видео

Регистрация Запомнить меня
Войти через:  Facebook Google Twitter Vk Yandex Mail.ru

Joaquin Sabina - Una Cancin Para La Magdalena - таба, видео

Печатать
Просмотров: 100
Уроки эстрадного вокала в Санкт-Петербурге
                               Una canción para la Magdalena
                                       Joaquin Sabina


E||------------------7--9------------------------7--------------|
B||----------9--10-----------7-------------7----------------10--|
G||----------------------------------6--------------------------|
D||------9------------------------9-----9----------------7------|
A||---7-----------------------6-----------------------7---------|
E||----------------------------------------------9--------------|

E|--------------4--4----------2--------------------|
B|---10---------------------2----------------------|
G|----------------------2--------------------------|
D|----------7--------------------------------------|
A|-------9----------0------------------------------|
E|--7----------------------------------------------|

E|------------------------------------------2-|
B|------2--4—5-------------5----------5-------|
G|---------------------2-----------4----------|
D|------------------4-------------------------|
A|-------------2------------------------------|
E|--------------------------------------------|

E|--4----------5---4-------2----0--------------------------|
B|-------------------4---------------------0------------0--|
G|--------2-----------------------------1-----------1------|
D|-----4-------------4----------------2-----------2--------|
A|--2----------------2-----------------------2-------------|
E|---------------------------------0-----------------------|

E|------------------------------|
B|---------------0------------0-|
G|----------1-----------1-------|
D|--------2-----------2---------|
A|---------------2--------------|
E|--0---------------------------|

E|------------------4----------------------------------------|
B|-----------------------------5-----------------7-----------|
G|--------4------------------------------6----------6--------|
D|------6-----6---------6------------9------9----9------9----|
A|---7-----------------------------6-------------------------|
E|-----------------------------------------------------------|

E|-----------------------4----------------|
B|-----------------5------------5---------|
G|---------4-------4------4------4--------|
D|----------------------------------------|
A|------4---------------------------------|
E|----------------------------------------|

E|------------------------------------------4-------|
B|--------------7---------------------------------4-|
G|------------------6-----------------5-------------|
D|-------8------------------------------------------|
A|----6---------------------------------------------|
E|----------------------------4---------------------|

E|------------------------4----------------------|
B|----------------5----------------5-------------|
G|----------4---------4-------4--------4---------|
D|-----------------------------------------------|
A|---4-------------------------------------------|
E|-----------------------------------------------|

E|------------------------4-----------------|
B|--------------4-------------------4-------|
G|-------5---------5---------5-------5------|
D|------------------------------------------|
A|------------------------------------------|
E|--4---------------------------------------|

E|------------------0------------------------------0----------|
B|-----------2---------------2----------------2----------2----|
G|-----2--------2-------2-------2------0-----0-----0------0---|
D|------------------------------------------------------------|
A|--0----------------------------------1----------------------|
E|------------------------------------------------------------|

E|--------------------0----------------------2------|
B|-------------4-------------4--------------------0-|
G|------4--------4------4-----4--------2------------|
D|------------------------------------1-------------|
A|----2---------------------------------------------|
E|--------------------------------------------------|

E|------------- 4-------------------------2------|
B|----------------4----------5---------3-----3---|
G|--------5--------------4----4------------------|
D|-----------------------------------------------|
A|--------------------4--------------------------|
E|---4-----------------------------0-------------|

E|-------------------------------------------------------0-|
B|--------------2-------------2-------------------4--------|
G|--------2------2------0------0-----------4--------4------|
D|---------------------------------------------------------|
A|-----0---------------1----------------2------------------|
E|---------------------------------------------------------|


E|--------------------------------0------------|
B|--------4------------------4------------4----|
G|---4-------4---------4-------4-----4------4--|
D|---------------------------------------------|
A|----------------0----------------------------|
E|---------------------------------------------|

E|---------------------------------------------------4-|
B|------------0----------------4---------------5-------|
G|-------1-----1--------5-------5-------4-------4------|
D|-----------------------------------------------------|
A|------------------------------------4----------------|
E|---0---------------4---------------------------------|

E|---------------------------------0------------|
B|--------5-------------------4----------4------|
G|----4-------4---------4-----4----4------4-----|
D|----------------------------------------------|
A|----------------2-----------------------------|
E|----------------------------------------------|

E|----------------------2--------------------------0-|
B|--------------2-------------2--------------4-------|
G|--------3-------3-------3---3--------4-----4-------|
D|---------------------------------------------------|
A|-----------------------------------2---------------|
E|----2----------------------------------------------|

E|------------0--2-----------------------------|
B|--------4-----------4------4-------2------0--|
G|----4-----------------4----------------------|
D|---------------------------------------------|
A|---------------------------------------------|
E|--------------0------------------------------|

E|-------------------------------------------------------|
B|------------5-----5-----5--------------------7---------|
G|-----------------------------------------6---------6---|
D|---------6----6----6----6-----------9-----9----9----9--|
A|------7--------------------------6---------------------|
E|-------------------------------------------------------|

E|-------------4-----------------------------|
B|---------5-----------5-------------7-------|
G|-----4----4-----4-----4---------------6----|
D|--------------------------------8----------|
A|---4------------------------6--------------|
E|-------------------------------------------|


E|------------4--------------------------------------|
B|-----------------4--------------------5------------|
G|-------5--------------------4--------------4-------|
D|--------------------------6------6-------6-----6---|
A|-----------------------4---------------------------|
E|----4----------------------------------------------|

E|-------------------------------------------0------------|
B|----------------4---------------------2-----------2-----|
G|--------5-----------5------------2-----2-----2-----2----|
D|------4-----4-----4------4------------------------------|
A|-------------------------------0------------------------|
E|-4------------------------------------------------------|


E|-------------------0-----------------------------0------------|
B|-------------2------------2-----------------4-------------4---|
G|-------0------0------0-----0---------4-------4-----4------4---|
D|--------------------------------------------------------------|
A|---1--------------------------------2-------------------------|
E|--------------------------------------------------------------|

E|-----------2--------------4----------|
B|----------------0--------------4-----|
G|-------2---------------5-------------|
D|---1---------------------------------|
A|-------------------------------------|
E|-------------------4-----------------|

E|-----------------------------2--------------------0------------|
B|--------------5----------3-------3------------2---------2------|
G|--------4-------4------------------------2-----2----2-----2----|
D|---------------------------------------------------------------|
A|-----4--------------------------------0------------------------|
E|-------------------0-------------------------------------------|

E|-------------------5-----4--------------|
B|---------------6------------------------|
G|-----------6----6----6-----6------------|
D|----------------------------------------|
A|----------------------------------------|
E|--4-------------------------------------|

E|-----------------2----------------------------------------|
B|-----------2------------2----------------4---------4------|
G|------3------3------3-----3--------4-----4-----4----4-----|
D|----------------------------------------------------------|
A|--------------------------------2--------------0----------|
E|---2------------------------------------------------------|

E---------------0---------------------------------|
B----------0---------0--------------0-------------|
G------1-----1----1---1------1---------1----------|
D------------------------------0----0----0----0---|
A-------------------------------------------------|
E-0----------------------0------------------------|

E|-------------------0------------------------------------------|
B|--------------2------------2---------------4-----------4------|
G|---------2------2------2-----2--------4------4-----4-----4----|
D|--------------------------------------------------------------|
A|-----0----------------------------2--------------0------------|
E|--------------------------------------------------------------|

E|-------------------0----------------|
B|---------------0------------0-------|
G|----------1-----1------1-----1------|
D|------------------------------------|
A|------------------------------------|
E|---0--------------------------------|

E|----------6------------4---------------------------|
B|--------------------------------------------5------|
G|------6-----6-------5------5---------4------4------|
D|---------------------------------------------------|
A|-----6----------------------------4----------------|
E|-----------------4---------------------------------|

E|--------------------------------------------------|
B|--------------4---------------2-------------2-----|
G|----------4------4--------2-----2--------3----3---|
D|--------------------------------------------------|
A|---2----------------0----------------2------------|
E|--------------------------------------------------|

E|----------------0---------------------------0-------------|
B|------------4----------4---------------4--------------4---|
G|-------4-----4-----4-----4--------4------4-------4-----4--|
D|----------------------------------------------------------|
A|----2--------------------------0--------------------------|
E|----------------------------------------------------------|

E|----------------0--------------------|
B|------------0--------0---------------|
G|--------1-----1----1---1-------------|
D|-------------------------------------|
A|-------------------------------------|
E|---0---------------------------------|


E|--------------------------------------------0-----------|
B|-----------4----------4--------------0-----------0------|
G|-------4---4-----4-----4--------1------1-----1----1-----|
D|--------------------------------------------------------|
A|----2-----------0---------------------------------------|
E|----------------------------0---------------------------|

E|---------------------------------------------|
B|--------------4------------4-----------------|
G|----------4----4------4----4-----------------|
D|---------------------------------------------|
A|---2----------------0------------------------|
E|---------------------------------------------|

E|---------------0----------------------------0--|
B|-----------0-----------0-----------4-------4---|
G|------1------1-----1-----0------------4--------|
D|-----------------------------------------------|
A|----------------------------------2------------|
E|--0--------------------------------------------|

E|-----2---2-------0-------------------||
B|------4---4-------0------------------||
G|------4---4-------1------------------||
D|------------------0------------------||
A|-----2-----------2-------------------||
E|-------------------2-----------------||


SOLM                          REM            Mim
Si a media noche, por la carretera que te conté,
                    SI7           DOM
detrás de una gasolinera donde llené,
                          REM   SI7                  Mim
te hacen un guiño unas bombillas  azules, rojas y amarillas,
        DOM    REM
pórtate bien y frena.
              SOLM SI7     Mim                    DOM             REM
Y, si la Magdalena pide un trago, tú la invitas a cien que yo los pago.

SOLM                   REM                   Mim
Acércate a su puerta y llama si te mueres de sed,
                      SI7               DOM
si ya no juegas a las damas ni con tu mujer,
                      REM    SI7                  Mim                  DOM
sólo te pido que me escribas, contándome si sigue viva la virgen del pecado,
   Lam                      REM       RE7                    SOLM
la novia de la flor de la saliva,  el sexo con amor de los casados.
SOL7            DOM REM           SOLM
Dueña de un corazón, tan cinco estrellas,
SI7                      DOM                  Lam             REM
que, hasta el hijo de un Dios, una vez que la vio, se fue con ella.
            SOLM REM      SOLM
Y nunca le cobró, la Magdalena.

SOLM                     REM                Mim
Si estás más solo que la luna, déjate convencer,
                          SI7           DOM
brindando a mi salud, con una que yo me sé.
                      REM   SI7                    Mim
Y, cuando suban las bebidas, el doble de lo que te pida,
DOM            REM                    SOLM SI7   Mim
dale por sus favores, que en casa de María de Magdala,
DOM            Lam            REM
las malas compañías son las mejores.

SOLM                      REM                    Mim
Si llevas grasa en la guantera y un alma que perder,
                      SI7             DOM
aparca junto a sus caderas de leche y miel,
                     REM
Entre dos curvas redentoras
SI7                     Mim                          DOM
la más prohibida de las frutas que espera hasta la aurora,
Lam                        REM      RE7                      SOLM
la más señora de todas las putas, la más puta de todas las señoras.
SOL7        DOM REM          SOLM
Con ese corazón, tan cinco estrellas,
SI7                      DOM                   Lam             REM
que, hasta el hijo de un Dios,  una vez que la vio, se fue con ella,
            SOLM REM      SOLM
Y nunca le cobró, la Magdalena.
Добавлено: 05.07.2012
Другие материалы по этой песне:
  • Аккорды и текст

Страница создана 05.07.2012
http://primanota.ru/joaquin-sabina/una-cancin-para-la-magdalena-chords.htm
Привет, Гость.
Предлагаем пройти революционный курс по гитаре.
Подарок от PrimaNota.Ru, забирай!