PrimaNota.ru - самый крупный в мире бесплатный архив песенных текстов, аккордов, табулатур и нот


Joaquin Malats - Serenata Espaola - таба, видео

Регистрация Запомнить меня
Войти через:  Facebook Google Twitter Vk Yandex Mail.ru

Joaquin Malats - Serenata Espaola - таба, видео

Печатать
Просмотров: 151
Уроки эстрадного вокала в Санкт-Петербурге
Serenata Espanola By Joaquin Malats (1872-1912)


This a real fun song to play. Give it a strong sense of forward
motion. It is in 3/4 timing, and the left hand fingerings are a
little tricky sometimes.

C-roman numeral means barre that fret. Played fairly fast.

      C.1---------------------------------------------------------
E||---------------------|---------------------|---------------------|
B||-----1------1-----1--|-----3------3-----3--|-----1------1-----1--|
G||-----2------2-----2--|-----1------1-----1--|-----2------2-----2--|
D||-----2p1h2--2-----2--|-----2p1h2--2-----2--|-----2p1h2--2-----2--|
A||--0------------------|--2------------------|--0------------------|
E||---------------0-----|---------------0-----|---------------0-----|


   C.I-------------
---------------------||----------------------|---------------------|
-----3------3-----3--||---------------10--9--|--5------------------|
-----1------1-----1--||*-----9--8--9---------|-----7------7-----7--|
-----2p1h2--2-----2--||*---------------------|-----6------6-----6--|
--2------------------||---0------------------|--------6/7----------|
---------------0-----||---------------0------|--7------------0-----|


------------------------|---------------------|--------------8--10--|
------------10--9h10p9--|--5------------------|---------------------|
-----9--8-9-------------|-----7------7-----7--|-----9--8--9---------|
------------------------|-----6------6-----6--|--------7-----6------|
--0---------------------|--------6/7----------|--0------------------|
------------0-----------|--7------------0-----|---------------------|


                                                  C.VIII---------------------
--12-----12-----12-----|--13------12---------10--|--12--10h12h10-8-------------|
------8------8------9--|------10------12---------|------------------8-------8--|
--0-------------0------|--0---------------0------|--------------------------9--|
-----------------------|-------------------------|-----------------------------|
-----------------------|-------------------------|---------------------9/10----|
-----------------------|-------------------------|--8--------------------------|


-----7--6--7--10------|--5--5h7p5-4--0---------|-----7-8-7-6-7--10------|
------------------12--|----------------------0-|--------------------12--|
--------------10------|----------------------7-|----------------10------|
--0-------------------|-----------------8/9----|--0---------------------|
----------------------|------------------------|------------------------|
----------------------|--0---------------------|------------------------|


--5--5h7p5-4--0---------|-----7h8p7-6--7--10------|-----7h8p7-6--7--10------|
---------------------0--|---------------------12--|---------------------12--|
---------------------7--|-----------------10------|-----------------10------|
-----------------8/9----|--0----------------------|--0----------------------|
------------------------|-------------------------|-------------------------|
--0---------------------|-------------------------|-------------------------|


CVI---------              CVI---------             1____________________
-----7h8p7-6--7--11------|-----7h8p7-6--7--11------|-----12--13--12--10--8---|
---------------------12--|---------------------12--|-----------------12--10--|
-----------------11------|-----------------11------|-------------------------|
-------------------------|-------------------------|-------------------------|
--6----------------------|--6----------------------|-------------------------|
-------------------------|-------------------------|--0----------------------|


(this bar means to play just the first time)
___________________________________________________________________
--12p10-8---7--8---7--5--|--4--5--4-----------|--------0--0--0--0--|
-----12-10--9--10--9--6--|--5--6--5--6--5--3--|--1p-0--------------|
-------------------------|-----------7--5--4--|--2-----1-----0-----|
-------------------------|--------------------|--------------------|
-------------------------|--------------------|--------------------|
-------------------------|--0-----------------|--------------------|


______________________   2_______________________
--0---0-----0---------||-----12--13--12--10--8---|--12p10-8---7--8---7------|
------------------3---||-----------------12--10--|-----12-10--9--10--9--10--|
------------------1--*||-------------------------|----------------------10--|
------------------2--*||-------------------------|--------------------------|
--5\8----7------------||-------------------------|--------------------------|
---------------0------||--0----------------------|-----0--------------------|


-----0-----0------0--|-----0-----0-----0--|---------------------|
--9------------------|--------------------|--------5/-7--10--7/-|
--9-----7------------|--------------------|-----6---------------|
--------------10-----|--9-----------------|---------------------|
---------------------|--------7-----------|--0------------------|
--0------------------|--------------0-----|--------------0------|


 CVII--------                                CVII--------
----------------------|--------------9-----|----------------------|
--9-------------------|--------5/-7-----7/-|--9-------------------|
-------7----7------7--|-----6--------------|-------7----7------7--|
-----9---9--9------9--|--------------------|-----9---9--9------9--|
---------------6/7----|--0-----------------|---------------6/7----|
--7-------------------|--------------0-----|--7-------------------|


 CIX-----------------------    CVII--------
--12-------------9---12--9---|--12--------7-9--10/-12--|--10-------9--7--------|
-----------10----10------10--|----------9--------------|-----------------10--7/|
---------9----9--9-------9---|--------7----------------|------8/9--------------|
------11---------------------|------9------------------|-----------------------|
--0--------------------------|-------------------------|--0--------------------|
---------------------0-------|--7--------------0-------|-----------------0-----|


 CVII----------------                     CVII-------
----------------------|---------------------|----------------------|
--9-------------------|--------5/-7--10--7/-|--9-------------------|
-------7----7------7--|-----6---------------|-------7----7------7--|
-----9---9--9------9--|---------------------|-----9---9--9------9--|
---------------6/7----|--0------------------|---------------6/7----|
--7-------------------|--------------0------|--7-------------------|


                      CVII-------           CIX-------------
--------------9-----|---------------------|--12--------------------12--13--|
--------5/-7-----7/-|--9------------------|-----------10---10/-13----------|
-----6--------------|-------7----7--------|---------9----9-----------------|
--------------------|-----9---9--9------7-|------10------------------------|
--0-----------------|---------------6/7-9-|--0---------------------11------|
--------------0-----|--7------------------|--------------------------------|


--15---------------15-----15--|--15--------------13-12h13p12--10--|
------------13----------------|------------12---------------------|
--0------12----12------0------|--0------10----10----------0-------|
------14----------------------|------12---------------------------|
------------------------------|-----------------------------------|
------------------------------|-----------------------------------|


 CVIII--------------------
--12-----------------------|-----7--6--7--10------|
-----------8----8-------8--|------------------12--|
---------9------9-------9--|--------------10------|
------10-----10------------|--0-------------------|
-------------------9h10----|----------------------|
--8------------------------|----------------------|


--5--5p7p5-4--0---------|-----7--6--7--10------|--5--5h7p5-4-0---------|
---------------------0--|------------------12--|--------------------0--|
---------------------7--|--------------10------|--------------------7--|
-----------------8/9----|--0-------------------|----------------8/9----|
------------------------|----------------------|-----------------------|
--0---------------------|----------------------|--0--------------------|


                                                   CVI-------
-----7h8p7-6-7--10------|-----7h8p7-6-7--10------|-----7h8p7-6-7--11------|
--------------------12--|--------------------12--|--------------------12--|
----------------10------|--0-------------10------|----------------11------|
--0---------------------|------------------------|------------------------|
------------------------|------------------------|--6---------------------|
------------------------|------------------------|------------------------|


 CVI--------
-----7h8p7-6-7--11------|-----12--13--12--10--8---|--12p10--8---7--8---7-----|
--------------------12--|-----------------12--10--|-----12--10--9--10--9--10-|
----------------11------|-------------------------|-----------------------10-|
------------------------|-------------------------|--------------------------|
--6---------------------|-------------------------|--------------------------|
------------------------|--0----------------------|-----0--------------------|


-----0-----0------0--|-----0-----0-----0--|-----------------------5-----|
--9------------------|--------------------|-----1-----5-----6--------6/-|
--9-----7------------|--------------------|-------2-----5-----5---------|
--------------10-----|--9-----------------|---------2-----7-----7-------|
---------------------|--------7-----------|--0--------------------------|
--0------------------|--------------0-----|-----------------------0-----|


CVII----------                                    CVII---------
----------------------|----------------------8---|----------------------|
--9-------------------|----1-----5-----6-------6/|--9-------------------|
-------7---7-------7--|------2-----5-----5-------|-------7---7-------7--|
-----9---9-9-------9--|--------2-----7-----7-----|-----9---9-9-------9--|
--------------6/7-----|--0-----------------------|-------------6/-7-----|
--7-------------------|----------------------0---|--7-------------------|

  CIX----------------------   CXII---------
--12------------9---12--9---|--12--------7-9--10/-12--|--10------9--7--5-----|
-----------10---10------10--|----------9--------------|-------------------7/-|
---------9----9-9-------9---|--------7----------------|------8/9-------------|
------11--------------------|------9------------------|----------------------|
--0-------------------------|-------------------------|--0-------------------|
--------------------0-------|--7--------------0-------|----------------0-----|


 CVII--------          CV------------------- CIII-----------------
----------------------|--5------------------|--3------------------|
--9-------------------|-----6------6-----6--|-----5------5-----5--|
-------7----7------7--|-------5----5-----5--|-------5----5-----5--|
-----9---9--9------9--|---------7-----------|---------5-----------|
---------------6/7----|--8------------8-----|--3------------3-----|
--7-------------------|---------------------|---------------------|


--1-----------------|--0------------------|-----7--8--10-8h10p8-7--|
-----3------3-----3-|-----0------0-----0--|------------------------|
-------2----2-----2-|-------1----1-----1--|------------------------|
--0------3-----0----|---------2-----------|--0---------------------|
--------------------|---------------------|------------------------|
--------------------|--0------------0-----|------------------------|


 CIX----------
--12---------------0--|--1------1-----1-----1-----1-----1-|
------9------9-----0--|--0--------------------------------|
--------9----9-----1--|--2----2-----2-----2-----2-----2---|
----------9-----2-----|--0--------------0-----------------|
----------------------|-----2-----3-----------3-----2-----|
--0-------------------|-----------------------------------|


-----0------0-----0--|---------------------------|
-------0----0-----0--|--6------------------------|
---------------------|--5------------------------|
---------6-----------|--7--0--------7-9-10p9-7-9\|
--7------------7-----|--5----7-8h10--------------|
--0------------------|---------------------------|


---------------------|--1----------------------|-------------------------|
-----5---5--5-----5--|--0----------------------|---------------0-1-2-3-4-|
-------4----4-----4--|--2----------------------|-------0-1-2-3-----------|
--6------------------|--0------0-2-3h0-2---0---|-----3-------------------|
---------------7-----|-----2h3-----------3---2-|-------------------------|
--0------------------|-------------------------|--0----------------------|

                            
*________repeat__this__little__part__once_______
--0---------5-6-7-8-9-10-11-|--12----------------------|---------------------|
----6-7-8-9-----------------|--------------------------|---------------------|
----------------------------|------9--------9------9---|-----7------7-----7--|
----------------------------|------10p9h10--10-----10--|-----9p8h9--9-----9--|
----------------------------|--0-----------------------|---------------------|
--0-------------------------|-------------------0------|--7------------0-----|


__________________________________________*
---------------------|---------------------|---------------------4h5-|
-----1------1-----1--|-----3------3-----3--|--1--------------4h5-----|
-----2------2-----2--|-----1------1-----1--|--2------1h2-4h5---------|
-----2p1h2--2-----2--|-----2p1h2--2-----2--|--2--1h2-----------------|
--0------------------|--2------------------|--0----------------------|
---------------0-----|---------------0-----|-------------------------|


--0----------4h5-7h8-11h12-|--17--------4----|--5------------||
---------4h5---------------|------------3----|---------------||
-----4h5-------------------|--14-------------|--5------------||
---------------------------|------------2----|--2------------||
---------------------------|-----------------|--0------------||
---------------------------|------------0----|---------------||
Добавлено: 15.06.2012
Вам также может быть интересно:
Другие материалы по этой песне:
  • Аккорды и текст

Страница создана 15.06.2012
http://primanota.ru/joaquin-malats/serenata-espaola-chords.htm
Привет, Гость.
Предлагаем пройти революционный курс по гитаре.
Подарок от PrimaNota.Ru, забирай!