PrimaNota.ru - самый крупный в мире бесплатный архив песенных текстов, аккордов, табулатур и нот


Joaquin Malats - Serenata Andaluza - таба, видео

Регистрация Запомнить меня
Войти через:  Facebook Google Twitter Vk Yandex Mail.ru

Joaquin Malats - Serenata Andaluza - таба, видео

Печатать
Просмотров: 81
|-------------------------|-------------------------|
|---3---3---3---3---2---2-|---3---3---3---3---2---2-|
|-------------2---0-------|-------------2---0-------|
|---------3-----------2---|---------3-----------2---|
|-----0-------------------|-----0-------------------|
|-0-----------------------|-0-----------------------|

|-10-~~~~~~~~~~~~~~~~~~~~~~--9-----10p9--|-5-~~~~~~~~~~~~~~~~~~~-3-----5p3-|
|----------------------------------------|---3-----3-----3-----3---2-------|
|----7------7------7------7----9---------|------------------2--------------|
|----------------------7-----------------|------------3----------2---------|
|--------0------8-----------10---7-------|------0--------------------0-----|
|--0-------------------------------------|-0-------------------------------|

|-1-~~~~~~~~~~~~~~~~~~~-0-----1p0-|--------------------------------|
|---3-----3-----3-----3---2-------|-3-~~~~~~~~~~~~~~~~~~~~~~~~~~~~-|
|------------------2----0---------|---2-----2-----2-----2---3---3--|
|------------3--------------2-----|------------0-----3----5---2----|
|------0--------------------------|------0-------------------------|
|-0-------------------------------|-0------------------------------|

|-------------------------|-10-~~~~~~~~~~~~~~~~~~~~~~~-9-----10p9-|
|-------------------------|---------------------------------------|
|---2---2---2---2---3---3-|----7------7------7------7----9--------|
|---------0---3---5---2---|----------------------7----------------|
|-----0-------------------|--------0------8-----------10---7------|
|-0-----------------------|--0------------------------------------|

|-5-~~~~~~~~~~~~~~~~~~~-3-----5p3--|-1-~~~~~~~~~~~~~~~~~~~-0-----1p0-|
|---3-----3-----3-----3---2--------|---3-----3-----3-----3---2-------|
|------------------2---------------|------------------2----0---------|
|------------3----------2----------|------------3--------------2-----|
|------0--------------------0------|------0--------------------------|
|-0--------------------------------|-0-------------------------------|

|-----------------------------------|---------------5---5---5-|
|-3-~~~~~~~~~~~~~~~~~~~~~~~~~~~~~~~-|---------------6---6---6-|
|---2-----2-----2-----2-----3-----3-|---2---2---2-------------|
|------------0-----3-----5-----2----|---3---3---3---------0---|
|------0----------------------------|---------0-------0-------|
|-0---------------------------------|-0---3-------0-----------|

|-10-~~~~~~~~~~~~~~~~~~~~~~~~~~-8-----10p8-|
|----11------11------11------11---8--------|
|------------------------10---------0------|
|-----------------8------------------------|
|---------8---------------------7----------|
|--8---------------------------------------|

                           To Coda
|-5-~~~~~~~~~~~~~~~~~~~~~~~~~~~~~~~-|-5-~~~~~~~~~~~~~~~~~---0-----1p0--|
|---6-----6-----6-----6-----6-----6-|---2-----2-----2-----2---2--------|
|-----------------------------------|------------------0---------------|
|------------3-----------------3----|------------2--------------2------|
|------3-----------3----------------|-0----4----------------0----------|
|-3----------------------3----------|----------------------------------|

|-----------------------------------|---------------2---5---10-|
|-3-~~~~~~~~~~~~~~~~~~~~~~~~~~~~~---|-----------3--------------|
|---2-----2-----2-----2-----3-----3-|-------2-------------7----|
|------------0-----3-----5-----2----|---4-----0---4---7--------|
|------0----------------------------|-----0--------------------|
|-0---------------------------------|-0------------------------|

|-11-------------------------------------|
|-11----------11-~~~~~~~~~~~~~~~~~~~~----|
|----8------8----8------8------8------8--|
|-------10----------10-------------------|
|-10----------10-----------10------------|
|---------------------------------10-----|

|------------------------------------|-11------------------------------------|
|-10-8-7-8-10-~~~~~~~~~~~~~~~~~~~~---|-11----------11-~~~~~~~~~~~~~~~~~~~~---|
|-------------7------7------7------7-|----8------8----8------8------8------8-|
|-----------------7-----10------0----|-------10----------10------------------|
|------0----9------------------------|-10----------10-----------10-----------|
|--0---------------------------------|---------------------------------10----|

|-------------------------------------|---------3-~~~~~~~~~~~~~~~~~---|
|-10-8-7-8-10-~~~~~~~~~~~~~~~~~~~~----|-8-6---6---4-----4-----4-----4-|
|-------------7------7------7------7--|-----8-------------------------|
|-----------------7-----10------0-----|--------------5-----------5----|
|------0----9-------------------------|-6-------6----------6----------|
|--0----------------------------------|-------------------------------|

|-2-------2-~~~~~~~~~~~~~~~~~---|---------3---------5----------|
|---5-3-5---3-----3-----3-----3-|-8-6---6---4-----4---4-----4--|
|-----------2-----2-----2-----2-|-----8-------------5----------|
|---------0----------0----------|--------------5---------------|
|-----0--------0----------------|-6-------6--------------3-----|
|-0------------------------0----|------------------------------|

|---------------------------------|---------------------------------|
|-3-~~~~~~~~~~~~~~~~~---4-----6p4-|-3-~~~~~~~~~~~~~~~~~---1---------|
|---2-----2-----2-----2---3-------|---2-----2-----2-----2---3---3h5-|
|------------0--------------5-----|------------0--------------------|
|------0-----------0----3---------|------0-----------0--------0-----|
|-0-------------------------------|-0---------------------1---------|

|---------------------------------|---------------------------------|
|-3-~~~~~~~~~~~~~~~~~---4-----6p4-|-3-~~~~~~~~~~~~~~~~~---1---------|
|---2-----2-----2-----2---3-------|---2-----2-----2-----2---3---3h5-|
|------------0--------------5-----|------------0--------------------|
|------0-----------0----3---------|------0-----------0--------0-----|
|-0-------------------------------|-0---------------------1---------|

|-----------------------------------|-------------------------|
|-3-~~~~~~~~~~~~~~~~~~~~~~~~~~~~~---|---------------3---3---3-|
|---2-----2-----2-----2-----2-----2-|---2---2---2---------2---|
|------------0----------------------|-------------0---4-------|
|------0-----------0-----------0----|---------0---------------|
|-0----------------------0----------|-0---4-------------------|

|-------------|--------------|---3-5-6------|-5-5-3-2------|
|-4---6-8-6---|-3-3-1--------|---4-6---10-8-|-7-7-4-3------|
|---5-------5-|-------3------|--------------|---------2----|
|---5---------|---------3----|-1------------|--------------|
|-3-----------|-1----------1-|-------6--8-6-|------------0-|
|-------------|--------------|--------------|-0------------|

|-------------|-----------|-----------------|-------------|
|---4-6-8-6-4-|-3---------|---4-6-8-6-4h6p4-|-3---------3-|
|-------------|---2--2----|-----------------|---------2---|
|---5-7-8-7-5-|-----------|---5-7-8-7-5-----|-----0-4-----|
|-3-----------|---------0-|-3---------------|---0---------|
|-------------|-0---------|-----------------|-0-----------|

|-------------|--------------|-------------|------------|
|-4---6-8-6---|-3-3-1--------|---4-6-8-6-4-|-3----------|
|---5-------5-|-------3------|-------------|---2--2-----|
|---5---------|---------3----|---5-7-8-7-5-|------------|
|-3-----------|-1----------1-|-3-----------|---------0--|
|-------------|--------------|-------------|-0----------|

                                    Molto Meno
|-----------------|---------------|-10---8-6-5-|-8-5h6p5--8--------|
|---4-6-8-6-4-6-4-|-3-------------|------------|-------------------|
|-----------------|---------2-----|--7---------|-------------------|
|---5-7-8-7-5-----|-----0-4---<5>-|------------|---------10----10--|
|-3---------------|---0-----------|------------|-------------------|
|-----------------|-0-------------|------------|------------10-----|

|----5-6-5---|-6--------6-----10-|-13-11-10----------|-----------------|
|--8-------8-|---8h10p8----------|----------13-11-10-|-13-11-10-8------|
|------------|-------------------|-10----------------|--------------8--|
|------------|----------8---8----|-------------------|-----------------|
|------------|-------------------|-------------------|------------6----|
|------------|------------8------|-------------------|-----------------|

|----5-6-5---|-5-~~~~~~~~~~~~~~~~~~~~~~~~~~~~~---|
|--8-------8-|---------------------------0-----0-|
|------------|---2-----2-----2-----2-----0-----0-|
|------------|------4-----------4-----2----------|
|------------|------------0-----------------0----|
|------------|-0---------------------------------|

|-(5)~~~~~~~~~~~~~~~~~~~~~~~~~~~~~~----|
|-----------------------------0-----0--|
|-----2-----2-----2-----2-----0-----0--|
|--------4-----------4-----2-----------|
|--------------0-----------------0-----|
|--0-----------------------------------|

|--------10-|-15-10h11p10------------|-10-8-10-8-6------|-6----8-6-5-5h6--|
|-----------|-11----------13-11-10-8-|-------------10-8-|----8------------|
|-2---------|--0---------------------|----0------0----0-|-7---------------|
|-4---------|-----0-----------0----0-|-10---------------|----0------------|
|-5---------|------------------------|------------------|-----------------|
|------0----|------------------------|------------------|----------0------|

                                                             T
|-3-------------------------|-3-------------------------|----------------|
|---0-----0---0---0---1---1-|---0-----0---0---0---1---1-|-0--------------|
|-----------0-----------1---|-----------0-----------1---|-0--------------|
|------0--------5---3-------|------0--------5---3-------|-0--------------|
|---------------------------|---------------------------|-----------10---|
|-5-------------------------|-5-------------------------|-5--5(17)-------|

|-------------5-3-----|--------------|-------------5-3-----|--------------|
|-4-4-----4-6-----6-4-|-3-3-1--------|-4-4-----4-6-----6-4-|-3-3-1--------|
|---------------------|-------3------|---------------------|-------3------|
|---5-----5---3-------|---------3----|---5-----5---3-------|---------3----|
|-3-------------------|-1----------1-|-3-------------------|-1----------1-|
|---------------------|--------------|---------------------|--------------|

|---------------8-6-|-4------------|-------------5-9--9-|
|-------------7-----|---6-4--------|-------2-4-6-----10-|
|---------3-5-------|-------6------|-----2--------------|
|-----4-6-----------|--------------|---3----------------|
|---3---------------|-4-------4--1-|---0-------0---8----|
|-6-----------------|--------------|-3------------------|

|-6------------|--------------|--------------------|
|-6--------0-4-|-3--------0-4-|-3-------11---------|
|-6----1-3-----|-3----1-3-----|-3S10-10------------|
|------3-------|---3--3-------|----------------8S3-|
|---8----------|-1------------|-1----------8-8-----|
|----------3---|----------3---|------------------3-|

                      T                                             T
|-----------------6-7-7(19)-|-6-----6---------|-----------------6-7-7(19)--|
|---------------9-----------|---6-6-----------|---------------9------------|
|-------------8-------------|-----------------|-------------8--------------|
|-------6-8-9---------------|-8-----------8---|-------6-8-9----------------|
|-----6---------------------|---------8-8---8-|-----6----------------------|
|-6-9-----------------------|-----------------|-6-9------------------------|

|-6-----6---------|-11----11-13-11-13-|-9-6-4-2------|
|---6-6-----------|-------------12----|--------------|
|-----------------|-------------------|-----6-3------|
|-8-----------8---|--------9-11----11-|-8-4----------|
|---------8-8---8-|----9--------------|---------4--4-|
|-----------------|--9----------------|--------------|

|-7----7-9-7h9p7-|-6---------6-10-13----|-7---7-7-11-10h11p10-|
|----------------|---------6---------11-|---------------------|
|---8--8---8-----|-7-----7--------------|---8---8-------------|
|-6------6-------|-----8----------------|-6--------9----------|
|----------------|---8------------------|---------------------|
|----------------|-8--------------------|---------------------|

|-6---------6-10-13----|-12----11h12p11-9-------|-9-------------|-6---------|
|---------6---------11-|----11------------12-11-|---12-11-9-7---|-7-----6---|
|-7-----7--------------|----10------------------|-------------8-|-8---------|
|-----8----------------|------------------------|---------------|----8------|
|---8------------------|--9---------------------|---------------|-----------|
|-8--------------------|------------------------|---------------|-8---------|

|-------------------------------|
|-4-~~~~~~~~~~~~~~~~~-----0---0-|
|---3-----3-----3-----3-1-------|
|------------1------------------|
|------1-----------1--------1---|
|-1-----------------------------|

|-------------------------|--------------------------|
|-------------------1---1-|--------------------------|
|---3---3---3---3-1-------|---3---3---3---3---3---3--|
|---------1---------------|---------1----------------|
|-----1-------1-------1---|-----1-------1-------1----|
|-1-----------------------|-1---------------1--------|

|-------------------------|-1---------3-6-3-|-1------------------------|
|-------------------------|-----------------|--------------------------|
|---3---3---3---3---3---3-|---1---1---------|---1---1---1---1---1---1--|
|---------1---------------|---------3-------|---------3----------------|
|-----1-------1-------1---|-----1-----------|-----1-------1-------1----|
|-1---------------1-------|-1---------------|-1---------------1--------|

|---------------6-10-|-8-------6-------|-1---------3-6-3-|
|-4-------3S6-8------|-----------8-6-4-|-----------------|
|---1---1------------|---8---8---------|---1---1---------|
|--------------------|-----8-----------|---------3-------|
|-----1--------------|-6---------------|-----1-----------|
|-1------------------|-----------------|-1---------------|

|-1-----------------------|---------------6-10-|-7--------------------|
|-------------------------|-4-------3S6-8------|---4---4-7-11-7-------|
|---1---1---1---1---1---1-|---1---1------------|----------------10-8--|
|---------3---------------|--------------------|-----4----------------|
|-----1-------1-------1---|-----1--------------|-6--------------------|
|-1---------------1-------|-1------------------|----------------------|

|-^12-----------------------|-3-1---1-3---------------|
|-^-9-9---9-5---------------|-----4-----4---4---4---4-|
|-^-9---9-----6---6---6---6-|-------------------------|
|-^11-----------6-----------|---------1-------1-------|
|-----------4-------4-------|-------------1-----------|
|-----------------------6---|-1-------------------1---|

|-12-11-9-----------------0--|---------------------------------|
|---------9-7-5-4-------2----|-4-~~~~~~~~~~~~~~~~~---5-----6p5-|
|-----------------6---1------|---3-----3-----3-----3---6-------|
|-11----------------2--------|------------1--------------6-----|
|----------------------------|------1-----------1----4---------|
|----------------------------|-1-------------------------------|

|---------------------------------|------------------------------------|
|-4-~~~~~~~~~~~~~~~~~---2-----0h2-|-4-~~~~~~~~~~~~~~~~~~~~~~~~~~~~~----|
|---3-----3-----3-----3---1-------|---3-----3-----3-----3-----3-----3--|
|------------1--------------2-----|------------1-----------------------|
|------1-----------1--------------|------1-----------1-----------1-----|
|-1---------------------2---------|-1----------------------1-----------|

|---------------------------------|
|-4-~~~~~~~~~~~~~~~~~~~~~~~~~~~---|
|---3-----3-----3-----3---3-----3-|
|------------1--------------------|
|------1-----------1---------1----|
|-1---------------------1---------|

|-------------------------------|--------------------------------|
|-2-~~~~~~~~~~~~~~~~~---6---6---|-3-~~~~~~~~~~~~~~~~~------------|
|---3-----3-----3-----3---6---6-|---2-----2-----2-----2---3---3--|
|------2-----------2----7-------|------------0-----3----5---2----|
|-0----------0--------------0---|------0-------------------------|
|-------------------------------|-0------------------------------|

                  D.S. al Coda  &
|-------------------------------||-5-~~~~~~~~~~~~~~~~~---0-----1p0-|
|-3-~~~~~~~~~~~~~~~~~-----------||---2-----2-----2-----2---2-------|
|---2-----2-----2-----2---3---3-||------------------0----------2p0-|
|------------0-----3----5---2---||------------2--------------2-----|
|------0------------------------||-0----4----------------0---------|
|-0-----------------------------||---------------------------------|

|-----------------------------------|-^14----*|
|-3-~~~~~~~~~~~~~~~~~~~~~~~~~~~~~---|-^10----*|
|---2-----2-----2-----2-----2-----2-|-^11----*|
|------------0----------------------|-^-0----*|
|------0-----------0-----------0----|-^-0----*|
|-0----------------------0----------|-^-0----*|
Добавлено: 25.05.2012
Вам также может быть интересно:
Другие материалы по этой песне:

Страница создана 24.03.2012
http://primanota.ru/joaquin-malats/serenata-andaluza-chords.htm
Привет, Гость.
Предлагаем пройти революционный курс по гитаре.
Подарок от PrimaNota.Ru, забирай!