PrimaNota.ru - самый крупный в мире бесплатный архив песенных текстов, аккордов, табулатур и нот


Joao Pernambuco - Sounds Of Bells Sons De Carrihoes - таба, видео

Регистрация Запомнить меня
Войти через:  Facebook Google Twitter Vk Yandex Mail.ru

Joao Pernambuco - Sounds Of Bells Sons De Carrihoes - таба, видео

Печатать
Просмотров: 79
\---Song:-Sounds-of-Bells-------------\
 \---Composer:-Joao-Pernambuco---------\
  \---Transcription-by:Christian Liang--\
  /---E-Mail:christian.liang@gmail.com--/
 /---http://www.chrisliang.com---------/
/---Enjoy!----------------------------/

==========================================================================
          Sounds of Bells (Sons de Carrihoes) Joao Pernambuco
==========================================================================

2/4 D Major
                              (Segno)
[1]                VII3....................   
E|-----------------10-------|--9-----------------------|
B|-----------------------7--|-----7-----7----<12>------|
G|--------------------7-----|-----7-----7----------<12>|
D|--------------------------|-------------------<7>----|
A|--------------------------|--------------0===========|
D|--------------------------|--0===========------------|
    |  |  |  |  |  |  |  |     |  |  |  |  |  |  |  |  
L                  4  1  1     3  1     1     4  1  4
                                  1     1

[3]                                           V3.......
E|--------------------------|--------------------5-----|
B|--0--------------0--2--3--|-/7--------------5-----7--|
G|-----0-----0--------------|-----6-----6--------------|
D|-----2-----2--------------|-----5-----5--------------|
A|--------------------------|--0===========0===========|
D|--2===========2===========|--------------------------|
    |  |  |  |  |  |  |  |     |  |  |  |  |  |  |  |  
L   1  2     2  1     2  4     4  2     2     1  1  4
                                  1     1
[5]
E|--------------------------|--------------------------|
B|--0-----------------------|--------------------------|
G|-----2-----2-----2--------|-----2--------------------|
D|-----4-----4--------4-----|--------4-----4-----3-----|
A|-----------------------5--|-----------5--------------|
D|--0===========0===========|--0===========4=====3=====|
    |  |  |  |  |  |  |  |     |  |  |  |  |  |  |  |  
L      1     1     1  3  4        1  3  4  3     3
       3     3                             2     2

[7]                                           V3.......
E|--------------------------|--------------------5-----|
B|-----0-----0-----0--2--3--|--7--------------5-----7--|
G|-----0-----0--------------|-----6-----6--------------|
D|--2-----------------------|-----5-----5--------------|
A|--------------------------|--0===========0===========|
D|--2===========2===========|--------------------------|
    |  |  |  |  |  |  |  |     |  |  |  |  |  |  |  |  
L   2           1     2  4     4  2     2     1  1  4
    1                             1     1

[9]                VII3......................
E|-----------------10-------|--9-----------------------|
B|--0--------------------7--|-----7-----7-----<12>-----|
G|-----2-----2--------7-----|-----7-----7----------<12>|
D|-----4-----4--------------|--------------------<7>---|
A|--------------------------|--------------0===========|
D|--0===========0===========|--0===========------------|
    |  |  |  |  |  |  |  |     |  |  |  |  |  |  |  |  
L      1     1     4  1  1     3  1     1     4  1  4
       3     3                    1     1

[11]                                          V3.......
E|--------------------------|--------------------5-----|
B|--0--------------0--2--3--|-/7--------------5-----7--|
G|-----0-----0--------------|-----6-----6--------------|
D|-----2-----2--------------|-----5-----5--------------|
A|--------------------------|--0===========0===========|
D|--2===========2===========|--------------------------|
    |  |  |  |  |  |  |  |     |  |  |  |  |  |  |  |  
L   1  2     2  1     2  4     4  2     2     1  1  4
                                  1     1
[13]
E|--------------------------|--------------------5--7--|
B|--0-----------------------|-----------1/-4--7--------|
G|-----2-----2-----2--------|--------2-----------------|
D|-----4-----4--------4-----|--1h-4--------------------|
A|-----------------------5--|--------------------------|
D|--0===========0===========|--------------------------|
    |  |  |  |  |  |  |  |     |  |  |  |  |  |  |  |  
L      1     1     1  3  4     1  4  2  1  1  3  1  3
       3     3                             

[15]
E|--5-----0-----------------|--------------------------|
B|-----8-----0--------------|--------------0-----2-----|
G|--------------0-----------|-----2--------0-----0-----|
D|-----------------2--------|--------4-----2-----2-----|
A|--------------------2--1--|--0========5--------0=====|
D|--------------------------|--------------2=====------|
    |  |  |  |  |  |  |  |     |  |  |  |  |  |  |  |  
L   1  4           3  2  1        1  3  4  3     4
                                           2     3
                        Fine
[17]            VII3.........      
E|--------------10----------||-------------------------|
B|--3-----------7-----------||-3--3-----3--4-----4-----|
G|--2-----------7-----------||*4--4-----4--4-----4-----|
D|--4-----------0===========||*5--5-----5--5-----5-----|
A|--------------------------||-------------------------|
D|--0===========------------||-5===========0===========|
    |  |  |  |  |  |  |  |     |  |  |  |  |  |  |  |  
L   2           4              1  1     1  1     1
    1           1              2  2     2  2     2
    3           1              3  3     3  3     3
                               4

[19]                           V3......................
E|-----------------8-----8--|--8--8-----8--8-----8-----|
B|--7-----------------7-----|--7--7-----7--5-----7-----|
G|-----5-----5--------------|--5--5-----5--5-----5-----|
D|-----7-----7--------------|--0===========------------|
A|--0===========------------|--------------------------|
D|--------------0===========|--------------0===========|
    |  |  |  |  |  |  |  |     |  |  |  |  |  |  |  |  
L   3  1     1     4  3  4     4  4     4  4     4
       2     2                 3  3     3  1     3
                               1  1     1  1     1

[21]                                             VII3..
E|--10---------------<12>---|-----------------------10-|
B|-----8-----8--8-<12>------|-<12>------0-----0--------|
G|-----7-----7--7-------<7>-|----<12>------0-----7-----|
D|--9===========------------|-------<12>---------------|
A|--------------------------|--------------------------|
D|--------------------------|--------------------------|
    |  |  |  |  |  |  |  |     |  |  |  |  |  |  |  |  
L   4  2     2  2  4  4  1     4  4  4           1  4
    3  1     1  1

[23]...............                           V3.......
E|--8--7--------------------|--------------------5-----|
B|--------10-9--8--7-/5-----|--7--------------5-----7--|
G|-----------------------7--|-----6-----6--------------|
D|--------------------------|-----5-----5--------------|
A|--------------------------|--0===========0===========|
D|--------------------------|--------------------------|
    |  |  |  |  |  |  |  |     |  |  |  |  |  |  |  |  
L   2  4  4  3  2  1  1  3     4  2     2     1  1  4
                                  1     1

[25]
E|--------------------------|--------------------------|
B|--5-----------3-----------|--3--3-----3--4-----4-----|
G|-----5-----5--------5-----|--4--4-----4--4-----4-----|
D|-----4-----4--------4-----|--5--5-----5--5-----5-----|
A|--------------0===========|--------------------------|
D|--0===========------------|--5===========0===========|
    |  |  |  |  |  |  |  |     |  |  |  |  |  |  |  |  
L   4  3     3  1     3        1  1     1  1     1
       2     2        2        2  2     2  2     2
                               4  4     4  4     4
                               3  

[27]                           V3......................
E|-----------------8-----8--|--8--8-----8--8-----8-----|
B|--7-----------------7-----|--7--7-----7--5-----7-----|
G|-----5-----5--------------|--5--5-----5--5-----5-----|
D|-----7-----7--------------|--0===========------------|
A|--0===========------------|--------------------------|
D|--------------0===========|--------------0===========|
    |  |  |  |  |  |  |  |     |  |  |  |  |  |  |  |  
L   3  1     1     4  3  4     4  4     4  4     4
       2     2                 3  3     3  1     3
                               1  1     1  1     1

[29]                                               
E|--10---------------<12>---|--------0-----------------|
B|-----8-----8--8-<12>------|--12p9-----3p-0-----------|
G|-----7-----7--7-------<7>-|-----------------1--------|
D|--9-===========-----------|--------------------2p-0--|
A|--------------------------|--------------------------|
D|--------------------------|--------------------------|
    |  |  |  |  |  |  |  |     |  |  |  |  |  |  |  |  
L   4  2     2  2  4  4  1     4  1     3     1  2
    3  1     1  1
[31]
E|--------------------------|--------------------------|
B|-----------1-----------4--|-----------3--5-----3-----|
G|--------2-----------3-----|--------4-----5-----5-----|
D|-----2-----------5--------|-----5--------4-----4-----|
A|--3===========6===========|--5===========------------|
D|--------------------------|--------------0===========|
    |  |  |  |  |  |  |  |     |  |  |  |  |  |  |  |  
L   4  3  2  1  4  3  2  1     3  4  2  1  4     1
                                           3     3
                                           2     2

                                           D.S. al Fine
[33]                                          VII3.....
E|--3===========-----------||--3===========---10-------|
B|--0===========-----------||--0===========---------7--|
G|--0--0-----0--0-----0---*||--0===========------7-----|
D|-----0-----0--0-----0---*||--------------------------|
A|-------------------------||--------------------------|
D|--5===========-----------||--5===========------------|
    |  |  |  |  |  |  |  |     |  |  |  |  |  |  |  |  
L   1                          1              4  1  1
    3                          3


======
Legend
======
Left                       Right                 
p = pull off               p = pulgar = thumb    
h = hammer on              i = indice = index     
/ = slide                  m = medio = middle     
= = suspend/hold Note      a = anular = ring      
V = Barre at fret 5       
  


Добавлено: 23.05.2012
Другие материалы по этой песне:

Страница создана 10.03.2012
http://primanota.ru/joao-pernambuco/sounds-of-bells-sons-de-carrihoes-chords.htm
Привет, Гость.
Предлагаем пройти революционный курс по гитаре.
Подарок от PrimaNota.Ru, забирай!