PrimaNota.ru - самый крупный в мире бесплатный архив песенных текстов, аккордов, табулатур и нот


João Paixão - Downtown Tram - бас-таба, видео

Регистрация Запомнить меня
Войти через:  Facebook Google Twitter Vk Yandex Mail.ru

João Paixão - Downtown Tram - бас-таба, видео

Печатать
Просмотров: 30
-------------------------------------------------------------------------------
                             Downtown Tram - João Paixão
-------------------------------------------------------------------------------
Tabbed by: João Paixão
E-mail: 

Tuning: E standart

G|---------------------------------------------------------------------------|
D|---------------------------------------------------------------------------|
A|---------------------------------------------------------------------------|
E|-5-5-5--5-5-5--8-8-8--10-10-10---------------------------------------------|

G|---------------------------------------------------------------------------|
D|-----7-5-------------------------------------------------------------------|
A|-----------7-5---5-3-5-3---------------------------------------------------|
E|-5-5-----5-----5---------5-------------------------------------------------|

G|---------------------------------------------------------------------------|
D|---------------------------------------------------------------------------|
A|---------------------3-----------------------------------------------------|
E|-5-5-3-4-5-5-3-4-5-5---5-5-3-----------------------------------------------|

G|---------------------------------------------------------------------------|
D|---------------------------------------------------------------------------|
A|-----5-7-5----------5-0-7-0-5-0--------------------------------------------|
E|-5-8--------5-0-8-0--------------------------------------------------------|

G|---------------------------------------------------------------------------|
D|---------------------------------------------------------------------------|
A|-7-6-5---------------------------------------------------------------------|
E|---------5/--5/--5---------------------------------------------------------|

G|---------------------------------------------------------------------------|
D|---------------------------------------------------------------------------|
A|-7-6-----------------------------------------------------------------------|
E|---------5-8-0-------------------------------------------------------------|

G|---------------------------------------------------------------------------|
D|---------------------------------------------------------------------------|
A|-----------------5---------------------------------------------------------|
E|-12/0-0-0-12------5-8------------------------------------------------------|

G|---------------------------------------------------------------------------|
D|---------------------------------------------------------------------------|
A|---------------------------------------------------------------------------|
E|-12/0-0-0-12---------------------------------------------------------------|

G|---------------------------------------------------------------------------|
D|---------------------------------------------------------------------------|
A|---------------------------------------------------------------------------|
E|---------------------------------------------------------------------------|


| /  slide up
| \  slide down
| h  hammer-on
| p  pull-off
| ~  vibrato
| +  harmonic
| x  Mute note
===============================================================================
Добавлено: 10.06.2016
Другие материалы по этой песне:
  • Аккорды и текст

Страница создана 10.06.2016
http://primanota.ru/joao-paixao/downtown-tram-chords.htm
Привет, Гость.
Предлагаем пройти революционный курс по гитаре.
Подарок от PrimaNota.Ru, забирай!