PrimaNota.ru - самый крупный в мире бесплатный архив песенных текстов, аккордов, табулатур и нот


Joanna Newsom - The book of right on - таба, видео

Регистрация Запомнить меня
Войти через:  Facebook Google Twitter Vk Yandex Mail.ru

Joanna Newsom - The book of right on - таба, видео

Печатать
Просмотров: 81


I'm pretty sure this is right. There may be the odd note that's
not quite right or that I missed, but it's pretty darn close.
Especially seeing as this is a HARP song.

Tuning: C#-A-D-G-B-E

Riff 1:
E------------------|
B------------------|
G--------------3---|
D------------------|
A------7-----4-----|
C#-0-7--0--5-----5-|

Riff 2:
E---------------------------|
B---------------------------|
G-------------------3-----3-|
D---------------------------|
A------7-----7----4-----4---|
C#-0-7---0-7----5-----5-----|

Riff 3:
E----------------------------------|
B--4-4-4-4-4-4-4-4-2-2-2-2-2-2-2-2-|
G--4-4-4-4-4-4-4-4-3-3-3-3-3-3-3-3-|
D--6-6-6-6-6-6-6-6-4-4-4-4-4-4-4-4-|
A----------------------------------|
C#---------------------------------|

Riff 4:
E-23--23--23--23--23--23--23--23--23--23--23--23--23--23-----------|
B------------------------------------------------------------------|
G---21--21--21--21--21--21--21--21--21--21--21--21--21--21--21--21-|
D------------------------------------------------------------------|
A------------------------------------------------------------------|
C#-----------------------------------------------------------------|

Riff 5:
E----------------------------------|
B--5-----5---5---5---5---5---5---5-|
G----6---6---6---6---6---6---6---6-|
D----------------------------------|
A------4---4---4---4---4---4---4---|
C#---------------------------------|

Riff 6:
E----------------------------|
B--5-----5---5-----5-5---5-2-|
G----6---6---6-----6-6---6-3-|
D----------------4-----4-----|
A------4---4---4-------------|
C#---------------------------|

Riff 7:
E-------16--16------16--16------16--16-16-16-16-14-|
B-----12----12----12----12----12----12-12-12-12-11-|
G---13----13----13----13----13----13---------------|
D--------------------------------------------------|
A-11----------11----------11-----------------------|
C#-------------------------------------------------|

Riff 8:
E-------16--16------16--16------16------16------16------16-16-14-14-14---|
B-----12----12----12----12----12------12------12------12------11-11-11---|
G---13----13----13----13----13------13------13------13-------------------|
D---------------------------------------------------------------------11-|
A-11----------11----------11------11------11------11---------------------|
C#-----------------------------------------------------------------------|

Riff 9:
E-23--23--23--23--23--23-----------|
B----------------------------------|
G---21--21--21--21--21--21--21--21-|
D----------------------------------|
A----------------------------------|
C#---------------------------------|

Riff order:
1 	x2

2 amp; 3	x4

1	x2

2	keep playing with...
4	x1
5	x3
6	x1
7	x1
8	x1

1	x2

2	keep playing with...
4	x1
5	x3
6	x1
7	x1
8	x1

1	x1

2 amp; 9	x1

2 amp; 3	x4

Any comments, changes, etc. email me at: mayaswellbe@hotmail.com
Thanks. -Aza

Добавлено: 12.10.2013
Другие материалы по этой песне:
  • Аккорды и текст

Страница создана 12.10.2013
http://primanota.ru/joanna-newsom/the-book-of-right-on-chords.htm
Привет, Гость.
Предлагаем пройти революционный курс по гитаре.
Подарок от PrimaNota.Ru, забирай!