PrimaNota.ru - самый крупный в мире бесплатный архив песенных текстов, аккордов, табулатур и нот


Joan Baez - The Night They Drove Old Dixie Down - текст песни, бас-таба, видео

Регистрация Запомнить меня
Войти через:  Facebook Google Twitter Vk Yandex Mail.ru

Joan Baez - The Night They Drove Old Dixie Down - текст песни, бас-таба, видео

Печатать
Просмотров: 42
Уроки эстрадного вокала в Санкт-Петербурге
--------------------------------------------------------------------------
                            Artist - Joan Baez
                          *********************
                Song - The Night They Drove Old Dixie Down    
               ********************************************
                      Album - Blessed Are... (1971)
                     *******************************
                           Tabbed By - Ayreon77
                          **********************
--------------------------------------------------------------------------
Tuning = Standard             



INTRO
******
G|------------------------------3-|
D|----6-----6-----6-------3-4-6---|
A|-4-----4-----4-----4--6---------|
E|--------------------------------|


------------------
00:11
VERSE 1
********
Virgil Caine is the name.....     Til Stonewall's cavalry came.....
G|-3---3-|-------|-------|-3---3-|-------|-3---3-|-------|-------|
D|-------|-------|-4---4-|-------|-------|-------|-4---4-|-------|
A|-------|-4---4-|-------|-------|-4---4-|-------|-------|-------|
E|-------|-------|-------|-------|-------|-------|-------|-6---6-|

In the winter of '65......        I took the train to Richmond.....      
G|-------|-------|-3---3-|-------|-3---3-|-------|------|-3---3-|------------------|
D|-4---4-|-------|-------|-4---4-|-------|-4---4-|----6-|-------|----8-------------|
A|-------|-4---4-|-------|-------|-------|-------|-4----|-------|-6-----6--6--6--6-|
E|-------|-------|-------|-------|-------|-------|------|-------|------------------|


------------------
00:43
CHORUS
*******
The night they drove old Dixie down. The night they drove old Dixie down...  
G|-------3----|---------3-|---3-----|-----------3-|----------|---------|-3--3-3-|---3-----|
D|----6-----4-|----6--6---|-6---6-3-|----6-6--6---|-6-4--4---|-6-6---6-|--------|-6---6-3-|
A|-4----------|-4---------|---------|-4-----------|--------4-|-----4---|--------|---------|
E|------------|-----------|---------|-------------|----------|---------|--------|---------|

La, La, La, La, La, La, La, La, La, La, La, La
G|-------|-------|-----------------------|------------|-------|------------|------------|
D|-------|-------|-------------4--4-4--4-|---4-4-4--4-|--h--6-|------------|------------|
A|-4---4-|-------|-6-6--6-6--6-----------|-4----------|-6-8---|-4--3-------|-4--3-------|
E|-------|-6---6-|-----------------------|------------|-------|-------6--4-|-------6--4-|


------------------
01:15
VERSE 2
********
Back with my wife in Tennessee..  Virgil, quick, come see..... 
G|-3---3-|-------|-------|-3---3-|-------|-3---3-|-------|-3---3-|
D|-------|-------|-4---4-|-------|-------|-------|-4---4-|-------|
A|-------|-4---4-|-------|-------|-4---4-|-------|-------|-------|
E|-------|-------|-------|-------|-------|-------|-------|-------|

Now I don't mind' choppin' wood.. Just take what ya need.....
G|-------|-------|-3---3-|-------|-3---3-|-------|-------|-3---3-|------------------|
D|-4---4-|-------|-------|-4---4-|-------|-4---4-|-------|-------|----8-------------|
A|-------|-4---4-|-------|-------|-------|-------|-4---4-|-------|-6-----6--6--6--6-|
E|-------|-------|-------|-------|-------|-------|-------|-------|------------------|


------------------
01:48
CHORUS
*******
The night they drove old Dixie down. The night they drove old Dixie down...  
G|-------3----|---------3-|---3-----|-----------3-|----------|---------|-3--3-3-|---3-----|
D|----6-----4-|----6--6---|-6---6-3-|----6-6--6---|-6-4--4---|-6-6---6-|--------|-6---6-3-|
A|-4----------|-4---------|---------|-4-----------|--------4-|-----4---|--------|---------|
E|------------|-----------|---------|-------------|----------|---------|--------|---------|

La, La, La, La, La, La, La, La, La, La, La, La
G|-------|-------|-----------------------|------------|-------|------------|------------|
D|-------|-------|-------------4--4-4--4-|---4-4-4--4-|--h--6-|------------|------------|
A|-4---4-|-------|-6-6--6-6--6-----------|-4----------|-6-8---|-4--3-------|-4--3-------|
E|-------|-6---6-|-----------------------|------------|-------|-------6--4-|-------6--4-|


------------------
02:20
VERSE 3
********
Like my father before me...       Like my brother above me.....
G|-3---3-|-------|-------|-3---3-|-------|-3---3-|-------|-3---3-|
D|-------|-------|-4---4-|-------|-------|-------|-4---4-|-------|
A|-------|-4---4-|-------|-------|-4---4-|-------|-------|-------|
E|-------|-------|-------|-------|-------|-------|-------|-------| 

He was just eighteen....          I swear by the blood
G|-------|-------|-3---3-|-------|-3---3-|-------|-------|-3---3-|------------------|
D|-4---4-|-------|-------|-4---4-|-------|-4---4-|-------|-------|----8-------------|
A|-------|-4---4-|-------|-------|-------|-------|-4---4-|-------|-6-----6--6--6--6-|
E|-------|-------|-------|-------|-------|-------|-------|-------|------------------|


------------------
02:53
CHORUS
*******
The night they drove old Dixie down. The night they drove old Dixie down...  
G|-------3----|---------3-|---3-----|-----------3-|----------|---------|-3--3-3-|---3-----|
D|----6-----4-|----6--6---|-6---6-3-|----6-6--6---|-6-4--4---|-6-6---6-|--------|-6---6-3-|
A|-4----------|-4---------|---------|-4-----------|--------4-|-----4---|--------|---------|
E|------------|-----------|---------|-------------|----------|---------|--------|---------|

La, La, La, La, La, La, La, La, La, La, La, La
G|-------|-------|-----------------------|-----|---------|
D|-------|-------|-------------4--4-4--4-|---4-|--h--6-8-|
A|-4---4-|-------|-6-6--6-6--6-----------|-4---|-6-8-----|
E|-------|-6---6-|-----------------------|-----|---------|


ENJOY.......
Добавлено: 14.04.2017
Другие материалы по этой песне:
  • Аккорды и текст

Страница создана 29.04.2012
http://primanota.ru/joan-baez/the-night-they-drove-old-dixie-down-chords.htm
Привет, Гость.
Предлагаем пройти революционный курс по гитаре.
Подарок от PrimaNota.Ru, забирай!