PrimaNota.ru - самый крупный в мире бесплатный архив песенных текстов, аккордов, табулатур и нот


Jo Jo Gunne - Run Run Run - таба, видео

Регистрация Запомнить меня
Войти через:  Facebook Google Twitter Vk Yandex Mail.ru

Jo Jo Gunne - Run Run Run - таба, видео

Печатать
Просмотров: 92
Авторы: Matt Andes, Jay Ferguson

-------------------------------------------------------------------------------
                             Run Run Run - Jo Jo Gunne
-------------------------------------------------------------------------------
PLEASE NOTE!
THIS IS THE Big Chain ALBUM VERSION. RECORDED IN 2005.

Tuning:EADGBE

Intro:

G     Eb     C   Eb G  F  C
Doo doo doo Run run run
G     Eb     C   Eb G   Bb C
Doo doo doo  Run run run


D
You'd better ride on baby
        Eb      F             G
You was born outside of the law


e|---------------------------|REPEAT 4 TIMES.
B|---------------------------|
G|---------------------------|
D|-----5----5----------------|
A|---------------------------|
E|--3----3----3---1---3------|

The slide is from the 8th fret, and just slowly travel upwards


REPEAT EVERYTHING ABOVE ONCE MORE.

SOLO:
I PLAY THE SOLO WITHOUT A SLIDE.

e|-3/15-15--15-----------------------------------------------------------------|
B|------------18-16-15---------------------------------------------------------|
G|---------------------17-15-17b-15--------------------------------------------|
D|----------------------------------15-----------------------------------------|
A|----------------------------------------------------------15h17p15-----------|
E|----------------------------------------------------15h17----------17--------|

e|-3/15-15--18-17-15-----15--------------------------------------------------|
B|-------------------18b----18b-15-------------------------------------------|
G|---------------------------------17b-15------------------------------------|
D|----------------------------------------17---------------------------------|
A|---------------------------------------------------------------------------|
E|---------------------------------------------------------------------------|

e|------------------------------20b-20b-20-18--------------------------------|
B|------------18----18-------------------------------------------------------|
G|--15-17--17b---17b---------------------------------------------------------|
D|---------------------------------------------------------------------------|
A|---------------------------------------------------------------------------|
E|---------------------------------------------------------------------------|


e|---------------------------|REPEAT 6 TIMES.
B|---------------------------|
G|---------------------------|
D|-----5----5----------------|
A|---------------------------|
E|--3----3----3---1---3------|


BACK TO THE VERSE.


THE LITTLE INSTRUMENTAL PART IS:

G  F  D

BACK INTO A SOLO:


e|-3/15-15--15----------------------------------------|
B|------------18-16-15--------------------------------|
G|---------------------17-15-17b-15-------------------|
D|----------------------------------15----------------|
A|----------------------------------------------------|
E|----------------------------------------------------|

e|-3/15---18-17-15---18B-18-17-15-----15h18p15-------------------------------------------------|
B|-----------------------------------18----------18-15----15h18p15-----------------------------|
G|-----------------------------------------------------17----------17-15------15h17b-15--------|
D|-----------------------------------------------------------------------17-------------17-----|
A|---------------------------------------------------------------------------------------------|
E|---------------------------------------------------------------------------------------------|

e|---------------------------------------------------------------------------|
B|-----------18----18--------------------------------------------------------|
G|-15-17-17b---17b------17b-17b--17-15---------------------------------------|
D|---------------------------------------------------------------------------|
A|---------------------------------------------------------------------------|
E|---------------------------------------------------------------------------|


OUTRO.

e|--------------------------|
B|--------------------------|
G|--------------------------|
D|---5-5--5-5------5--------|
A|---5-5--5-5--7-7-5--------|
E|---3-3--3-3--3-3-3--------|


e|-----------------------------|
B|---------6-------------------|
G|-----3-5b--5b-5b-4-----------|
D|--3h5--------------5-3h5-----|
A|-----------------------------|
E|-----------------------------|


IT'S NOT 100%, BUT IT'S THE CLOSEST I GOT.


************************************

| /   slide up
| \   slide down
| h   hammer-on
| p   pull-off
| ~   vibrato
| +   harmonic
| x   Mute note
| b   Bend
| pb  Pre-bend
| br  Bend release
| pbr Pre-bend release
| brb Bend release bend

************************************
Добавлено: 01.08.2015
Другие материалы по этой песне:
  • Аккорды и текст

Страница создана 01.08.2015
http://primanota.ru/jo-jo-gunne/run-run-run-chords.htm
Привет, Гость.
Предлагаем пройти революционный курс по гитаре.
Подарок от PrimaNota.Ru, забирай!