PrimaNota.ru - самый крупный в мире бесплатный архив песенных текстов, аккордов, табулатур и нот


Jo Jaleel - Colour Of Your Soul - таба, видео

Регистрация Запомнить меня
Войти через:  Facebook Google Twitter Vk Yandex Mail.ru

Jo Jaleel - Colour Of Your Soul - таба, видео

Печатать
Просмотров: 56
-------------------------------------------------------------------------------
                             Colour Of Your Soul - Jo Jaleel
-------------------------------------------------------------------------------
Tabbed by:
E-mail:

Tuning:

Solo
e|---------------------------------------------------------------------------|
B|---------------------------------------------------------------------------|
G|---------------------------------------------------------------------------|
D|--------------13-13-12---13-13-13-12-12-12s10-10---13-12-10----------------|
A|----------13--13-13-13---13-13-13-13-13-13s11-11------------13-11-10-------|
E|---11h15-------------------------------------------------------------13h15-|

e|---------------------------------------------------------------------------|
B|-----------------------------------------13-13b----------------------------|
G|-------------------------10s12-----12-15--------15-12----------------------|
D|---------13-15b-15b-13---12s13--13--------------------15-------------------|
A|---13h15-------------------------------------------------------------------|
E|---------------------------------------------------------------------------|

e|---------------------------------------------------------------------------|
B|------------13-16-18-16--18b16---18b16----18b18b18b18-16h18-16-------------|
G|------12-15-------------------17------17-----------------------------------|
D|---15----------------------------------------------------------------------|
A|---------------------------------------------------------------------------|
E|---------------------------------------------------------------------------|

Pre-chorus
e|--6-------6------6--------6------------------------------------------------|
B|--7--7-7---------7--7-7--------------9---------9--------9----------9-------|
G|--6---------6-6--6----------6-6------10--10-10----------10--10-10----------|
D|-------------------------------------11----------11-11--11------------11-11|
A|---------------------------------------------------------------------------|
E|---------------------------------------------------------------------------|

e|----------------------------------6------6-------6-------6-----------------|
B|--7-------7------7-------7--------7--7-7---------7--7-7--------------------|
G|--8--8-8---------8--8-8-----------6--------6-6---6---------6-6-------------|
D|--9---------9-9--9---------9-9---------------------------------------------|
A|---------------------------------------------------------------------------|
E|---------------------------------------------------------------------------|

e|---------------------------------------------------------------------------|
B|--9----------9--------9---------9---------7------7------7------7-----------|
G|--10--10-10-----------10--10-10-----------8--8-8--------8--8-8-------------|
D|--11-----------11-11--11----------11-11---9--------9-9--9--------9-9-------|
A|---------------------------------------------------------------------------|
E|---------------------------------------------------------------------------|

Bridge
e|---------------------------------------------------------------------------|
B|---------------------------------------------------------------------------|
G|--------------6--6h8-6------------3------------4-4-3-----------------------|
D|------4-6-6s8----------6---6b--4h6--6p4--------4-4-4-----------------------|
A|--4h6----------------------------------6---4h6-----------------------------|
E|---------------------------------------------------------------------------|

e|---------------------------------------------------------------------------|
B|---------------------------------------------------------------------------|
G|---------------------------------------------------------------------------|
D|---------------------------------------------------------------------------|
A|---------------------------------------------------------------------------|
E|---------------------------------------------------------------------------|


************************************

| /   slide up
| \   slide down
| h   hammer-on
| p   pull-off
| ~   vibrato
| +   harmonic
| x   Mute note
| b   Bend
| pb  Pre-bend
| br  Bend release
| pbr Pre-bend release
| brb Bend release bend

************************************
Добавлено: 02.06.2016
Другие материалы по этой песне:
  • Аккорды и текст

Страница создана 02.06.2016
http://primanota.ru/jo-jaleel/colour-of-your-soul-chords.htm
Привет, Гость.
Предлагаем пройти революционный курс по гитаре.
Подарок от PrimaNota.Ru, забирай!