PrimaNota.ru - самый крупный в мире бесплатный архив песенных текстов, аккордов, табулатур и нот


Jo Dee Messina - He'd Never Seen Julie Cry - текст песни, таба, видео

Регистрация Запомнить меня
Войти через:  Facebook Google Twitter Vk Yandex Mail.ru

Jo Dee Messina - He'd Never Seen Julie Cry - текст песни, таба, видео

Печатать
Просмотров: 66
SONG:   HE'D NEVER SEEN JULIE CRY
ARTIST: JO DEE MESSINA
TAB BY: DON CZARSKI
EMAIL:  GUITARZAN7@HOTMAIL.COM


              HE'D NEVER SEEN JULIE CRY
                    JO DEE MESSINA


INTRO:
     
    B          F#         Ebm       Ebm
E -------------------------6--------------
B -------------------------7---7-6-7----7-
G ------------------11-----8---------8----
D ------9--------11----11--8--------------
A ----9---9----9-----------6--------------
E --7----------------------6--------------

    B          F#         Ebm          Ebm
E -------------------------6------------6--
B -------------------------7---7-6-7----7-
G ------------------11-----8---------8--8--
D ------9--------11----11--8------------8--
A ----9---9----9-----------6------------6--
E --7----------------------6------------6--


VERSE:
               F#
His heart was tougher than a piece of leather
       C#                 Ab
Had a will carved out of stone
           B
He was a stallion who had thrown every rider
    F#                      C#
No woman could seem to hang on
       Ebm            C#
He had always been a fortress
      F#       B       Ab
With walls to high to climb
           F# B        C#              Ebm 
But then a-ga-in he'd never seen Julie cry

           Ebm
E ----------6--
B -7-6-7----7--
G -------8--8--
D ----------8--
A ----------6--
E ----------6--


VERSE:
           F#
He wasn't lookin for a woman
       C#              Ab
He was racin' with the wind
        B             F#
But he kinda took to Julie
      C#
Cause she kept up with him
                 Ebm              C#
Thought he'd out run her like the others
           F#        B        Ab
Leave her somewhere down the line
           F# B        C#              Ebm 
But then a-ga-in he'd never seen Julie cry

           Ebm
E ----------6--
B -7-6-7----7--
G -------8--8--
D ----------8--
A ----------6--
E ----------6--


CHORUS:
          F#
He never thought that love would hit him
        Ebm
Like a train comin' out of the dark
           B
He never thought a friend would hand him 
     C#
The keys to his own heart
        F#
He was like a ragin' river
           Ebm
One that's just to rough to ride
           B        C#               Ebm
But then again he'd never seen Julie cry
           B        C#               Ebm  
But then again he'd never seen Julie cry

           Ebm
E ----------6--
B -7-6-7----7--
G -------8--8--
D ----------8--
A ----------6--
E ----------6--


VERSE:
           F#
Oh how he wanted just to hold her
     C#            Ab
And wipe away the tears
         B                  F#
But she turned him a cold shoulder
           C#
Said I've tried lovin' you for years
          Ebm              C#
He didn't know that it was over
           F#        B       Ab
He thought he could make it right
           F# B        C#              Ebm 
But then a-ga-in he'd never seen Julie cry


CHORUS:
          F#
He never thought that love would hit him
        Ebm
Like a train comin' out of the dark
           B
He never thought a friend would hand him 
     C#
The keys to his own heart
        F#
He was like a ragin' river
           Ebm
One that's just to rough to ride
           B        C#               Ebm
But then again he'd never seen Julie cry
               B        C#               Ebm
Oh, but then again he'd never seen Julie cry
  Ebm
Ooooooohhh
       B        C#               Ebm  
Until then he'd never seen Julie cry

           Ebm Ebm  
E ----------6-------6-
B -7-6-7----7------7--
G -------8--8-----8---
D ----------8----8----
A ----------6---6-----
E ----------6--6------

           Ebm   C# F#
E ----------6--
B -7-6-7----7--
G -------8--8--
D ----------8--
A ----------6--
E ----------6--



========================== CAPO 4th FRET ===========================


SONG:   HE'D NEVER SEEN JULIE CRY
ARTIST: JO DEE MESSINA
TAB BY: DON CZARSKI
EMAIL:  GUITARZAN7@HOTMAIL.COM


              HE'D NEVER SEEN JULIE CRY
                    JO DEE MESSINA


CAPO: 4th FRET


INTRO:
     
    G          D        Bm        Bm
E ----------------------2----------------
B ----------------------3---3-2-3-----3--
G -----------------7----4---------4------
D ------5--------7---7--4----------------
A ----5---5----5--------2----------------
E --3-------------------2----------------

           
    G          D        Bm           Bm
E ----------------------2------------2---
B ----------------------3---3-2-3----3---
G -----------------7----4---------4--4---
D ------5--------7---7--4------------4---
A ----5---5----5--------2------------2---
E --3-------------------2------------2---


VERSE:
               D
His heart was tougher than a piece of leather
       A                   E
Had a will carved out of stone
           G
He was a stallion who had thrown every rider
    D                       A
No woman could seem to hang on
       Bm             A
He had always been a fortress
      D        G        E
With walls to high to climb
           D  G        A               Bm  
But then a-ga-in he'd never seen Julie cry

            Bm
E ----------2--
B -3-2-3----3--
G -------4--4--
D ----------4--
A ----------2--
E ----------2--


VERSE:
           D
He wasn't lookin for a woman
        A               E
He was racin' with the wind
        G             D
But he kinda took to Julie
       A
Cause she kept up with him
                 Bm               A
Thought he'd out run her like the others
           D         G        E
Leave her somewhere down the line
           D  G        A               Bm
But then a-ga-in he'd never seen Julie cry

            Bm
E ----------2--
B -3-2-3----3--
G -------4--4--
D ----------4--
A ----------2--
E ----------2--


CHORUS:
          D
He never thought that love would hit him
        Bm
Like a train comin' out of the dark
           G
He never thought a friend would hand him 
     A
The keys to his own heart
        D
He was like a ragin' river
           Bm
One that's just to rough to ride
           G        A                Bm
But then again he'd never seen Julie cry
           G        A                Bm   
But then again he'd never seen Julie cry

            Bm
E ----------2--
B -3-2-3----3--
G -------4--4--
D ----------4--
A ----------2--
E ----------2--


VERSE:
           D
Oh how he wanted just to hold her
     A             E
And wipe away the tears
         G                  D
But she turned him a cold shoulder
           A
Said I've tried lovin' you for years
          Bm               A
He didn't know that it was over
           D         G       E
He thought he could make it right
           D  G        A               Bm
But then a-ga-in he'd never seen Julie cry


CHORUS:
          D
He never thought that love would hit him
        Bm
Like a train comin' out of the dark
           G
He never thought a friend would hand him 
     A
The keys to his own heart
        D
He was like a ragin' river
           Bm
One that's just to rough to ride
           G        A                Bm
But then again he'd never seen Julie cry
               G        A                Bm
Oh, but then again he'd never seen Julie cry
  Bm
Ooooooohhh
       G        A                Bm   
Until then he'd never seen Julie cry

            Bm Bm  
E ----------2-------2-
B -3-2-3----3------3--
G -------4--4-----4---
D ----------4----4----
A ----------2---2-----
E ----------2--2------

           Bm   A D
E ----------2--
B -3-2-3----3--
G -------4--4--
D ----------4--
A ----------2--
E ----------2--




Добавлено: 04.05.2016
Другие материалы по этой песне:
  • Аккорды и текст

Страница создана 15.03.2012
http://primanota.ru/jo-dee-messina/hed-never-seen-julie-cry-chords.htm
Привет, Гость.
Предлагаем пройти революционный курс по гитаре.
Подарок от PrimaNota.Ru, забирай!