PrimaNota.ru - самый крупный в мире бесплатный архив песенных текстов, аккордов, табулатур и нот


Jmsn - Let U Go - аккорды и текст, видео

Регистрация Запомнить меня
Войти через:  Facebook Google Twitter Vk Yandex Mail.ru

Jmsn - Let U Go - аккорды и текст, видео

Печатать
Просмотров: 78
Let U Go
Jmsn
Artist:         JMSN
Song:           Let U Go
(aka Let U Go Part III, Let you go)
Album:          Priscilla
Tabbed by:      neuroxik
E-mail:         neuroxik [-at] gmail [dot-] com

Tuning:         E-A-D-G-B-e (Standard)
CAPO:           Capo I (1st fret)
Chord Names:    Chord names relative to capo

70 bpm, 6/4 time sig.

CHORD SHAPES:
        Em      022000
        C       x3555x
        G       355433
        D       x5777x
        B/D#    x6987x
        B7      x21202 (alternatively to B/D#, see note below)

==============================================================================
NOTE : 
        Although the synthesisers & bass ring a B/D#, it might be more
        appropriate to play a B7 instead (and easier to play for beginners).
        And of course, you can replace these chords with open chords.

        So, instead of going Em, C, G, D - B/D#
        You could play it as Em, C, G, D - B7
==============================================================================

Riff A (repeat throughout song)

    Em                                    C
e|-----0--0-----0--0-----0--0-----0--0-|-------------------------------------|
B|-----0--0-----0--0-----0--0-----0--0-|-----5--5-----5--5-----5--5-----5--5-|
G|-----0--0-----0--0-----0--0-----0--0-|-----5--5-----5--5-----5--5-----5--5-|
D|--2--------2--------2--------2-------|-----5--5-----5--5-----5--5-----5--5-|
A|--2--------2--------2--------2-------|--3--------3--------3--------3-------|
E|--0--------0--------0--------0-------|-------------------------------------|

    G                                     D                 B/D# (see note)
e|-----3--3-----3--3-----3--3-----3--3-|-------------------------------------|
B|-----3--3-----3--3-----3--3-----3--3-|-----7--7-----7--7-----7--7-----7--7-|
G|-----4--4-----4--4-----4--4-----4--4-|-----7--7-----7--7-----8--8-----8--8-|
D|--5--------5--------5--------5-------|-----7--7-----7--7-----9--9-----9--9-|
A|--5--------5--------5--------5-------|--5--------5--------6--------6-------|
E|--3--------3--------3--------3-------|-------------------------------------|


INTRO
------------------------------------------------------------------------------
Em  C  G  D - B/D#

VERSE
------------------------------------------------------------------------------
            Em
You've been in and out of mind, I think about it all the time

    C
The days that wind and wind, I thought I knew it all, but now

  G                                     D             B/D#
I know, I, I, I ain't never should have let you go

              Em
Thought I was one of a kind, But now I watch the clock to pass the time

  C
I drop it on the dime, Just leave the pen forget the line

   G                                   D           B/D#
Oh I, I, I... I ain't ever should have let you go, let you go 

  Em                              
I want you by my side, I'm like a groom without a bride

  C
I need you in the night, I'm like the moon without the tide

        G                                   D           B/D#
Oh yeah I, I, I... I ain't ever should have let you go, let you go


CHORUS
------------------------------------------------------------------------------

Em                 C
   Baby, I've been dreaming 'bout you lately

                               G                                
So where you gonna take me, Oh I, I, I

                         D              B/D#
I ain't ever should have let you go


BRIDGE
------------------------------------------------------------------------------

Em                   C
Now I see you did it all for me and 

G                        D             B/D#
I... I never should have let you go, I want you to know that

Em          C                  G
I'm sorry I watched you walk a-way...

                    D           B/D#
I never should have let you go, Wo-oh, wo-oh


SOLO
------------------------------------------------------------------------------

Em              C               G               D               B/D#
Woh


OUTRO
------------------------------------------------------------------------------

Em                 C               G
        Let you go      Let you go      Let you go, let you go
        

D                       B/D#
Let you go, let you go, let you go, let you go...

(Repeat riff 'til fade out: )   
Em      C       G       D   -   B/D#


Добавлено: 01.08.2015
Другие материалы по этой песне:
  • Аккорды и текст

Страница создана 01.08.2015
http://primanota.ru/jmsn/let-u-go-chords.htm
Привет, Гость.
Предлагаем пройти революционный курс по гитаре.
Подарок от PrimaNota.Ru, забирай!