PrimaNota.ru - самый крупный в мире бесплатный архив песенных текстов, аккордов, табулатур и нот


J:МОРС - Не умирай - аккорды и текст, видео

Регистрация Запомнить меня
Войти через:  Facebook Google Twitter Vk Yandex Mail.ru

J:МОРС - Не умирай - аккорды и текст, видео

Печатать
Просмотров: 651
Не умирай
J:МОРС
Intro (phono):

e|-10---10---9---9--- -10---10---9---9---|
b|----7----7---7---7- 2 ----8----8---8---8-| 2
G|------------------- раза -------------------| раза
D|------------------- -------------------|
B|------------------- -------------------|
E|------------------- -------------------|
H5 E5

Куплет:

H5
Я теряю больше, продолжая жить e|-x-|
C#dim F#5 b|-x-|
Там, где не встречу тебя. G|-x-|
Мир на "до" и "после" проще разделить, D|-5-|
Если не больно терять. B|-4-|
A5 E|-x-|
Лишь мои просветы С#dim 
D5 G5 F#5 (power chord)
И где-то твоя белизна.

Припев:
E5
Не умирай,
A5
Это как-будто
H5
Пасмурный рай,
Сонное утро.
E5 A5 H5
Искорки слёз, черепки перламутра тают.

Куплет:

Запахи и звуки, всё как в первый раз
Под нераскрытым зонтом.
Те, кому не легче позабудут нас
Если не сейчас, то потом.
Алые просветы
И где-то твоя белизна.

Припев:

Не умирай,
Это как будто
Пасмурный рай,
Сонное утро,
Капли росы, лепестки перламутра
Медленно вниз, голос негромко,
H5
Тающий пульс из-под обломков.
E5 A5
Знаешь, мечта рвётся где тонко,
G5
Так всегда.

Solo:

e|-10----------10-- -9----------10--10----------10----------|
b|----12----12----- 4 ---12----12--------12----12----13b14~~~-|
G|-------11-------- раза ------12--------------11----------------|
D|----------------- ----------------------------------------|
B|----------------- ----------------------------------------|
E|----------------- ----------------------------------------|
( G5 A5 H5) E5 G5 F#5

Припев:

Не умирай,
Это как будто
Пасмурный рай,
Сонное утро,
Искорки слёз, черепки перламутра...
Медленно вниз, голос негромко,
Тающий пульс из-под обломков.
Знаешь, мечта рвётся где тонко...

(Аккорды для аккустического исполнения:
Intro: Hm Em (x4)
Куплет: Hm C#dim F# (x2) Am Dm G F#
Припев: Em A Hm Em A Hm)
Добавлено: 20.08.2014
Другие материалы по этой песне:
  • Аккорды и текст

Страница создана 20.08.2014
http://primanota.ru/jmors/ne-umirai-chords.htm
Привет, Гость.
Предлагаем пройти революционный курс по гитаре.
Подарок от PrimaNota.Ru, забирай!