PrimaNota.ru - самый крупный в мире бесплатный архив песенных текстов, аккордов, табулатур и нот


Jjamz - Cleverly Disguised - таба, бас-таба, видео

Регистрация Запомнить меня
Войти через:  Facebook Google Twitter Vk Yandex Mail.ru

Jjamz - Cleverly Disguised - таба, бас-таба, видео

Печатать
Просмотров: 100
Artist: Jjamz
Song: Cleverly Disguised
Tabbed by: James Gat

-There's 3 guitars on the album version, but I'm either consolidating them
into 2 guitars, or on some parts telling you what the 3rd gt is doing with chords.

-Tabbed it acoustic friendly (not using too many high frets when possible)
and solo guitar friendly, with gt 1 getting most of the hooks.

-So this is not exactly how alex and james split their parts.

-Not accurate representation of the rhythm and how chords are hit.



Intro:
Gt 1
  B
e-7-x-x-x-7-x-x-x-7-x-x-x-7-x-x-x-|
b-7-x-x-x-7-x-x-x-7-x-x-x-7-x-x-x-|
g-8-x-x-x-8-x-x-x-8-x-x-x-8-x-x-x-|
d-9-x-x-x-9-x-x-x-9-x-x-x-9-x-x-x-|
a-9-x-x-x-9-x-x-x-9-x-x-x-9-x-x-x-|
e-7-x-x-x-7-x-x-x-7-x-x-x-7-x-x-x-|

Gt 2 (alex plays it on lower strings, higher up the neck)
  B
e-7~------7~------7~------7~------|
b-7~------7~------7~------7~------|
g-8~------8~------8~------8~------|
d---------------------------------|
a---------------------------------|
e---------------------------------|

Verse 1:
Buried alive....

Gt 1
  B                               C#              D#       C#
e------------------------------------------------------------------|
b------------------------------------------------------------------|
g------------------------------------------------------------------|    X2
d-4-4-4-4-4-4-4-4-4-4-4-4-4-4-4-8-6-6-6-6-6-6-6-6-8-8-11-8-6-6-6-8-|
a-2-2-2-2-2-2-2-2-2-2-2-2-2-2-2-6-4-4-4-4-4-4-4-4-6-6-9--6-4-4-4-6-|
e------------------------------------------------------------------|
Optional Light P.M.                                              ^
                                                                 |
 2nd time don't play last D# chord--------------------------------



Gt 2
e--------------------------------------------------------------------------|
b--------------------------------------------------------------------------|
g--------------------------------------------------------------------------|
d--------------------------------------------------------------------------|
a--------------------------------------------------------------------------|
e-7-7-7-7-7-7-7-7-7-7-7-7-7-7-7-11-9-9-9-9-9-9-9-9-11-11-11-11-9-9-9h11p9~-|

e-------------------------------------------------------------------------|
b-------------------------------------------------------------------------|
g-------------------------------------------------------------------------|
d-------------------------------------------------------------------------|
a-------------------------------------------------------------------------|
e-7-7-7-7-7-7-7-7-7-7-7-7-7-7-6-6-4-4-4-4-4-4-4-4-2-2-2-2-0-0-0-0---------|

Gt 3
on the repeat, Gt 3 (acoustic) does a picking pattern on the top 4 strings of the
BMaj barre and BMajAdd6? barre.
I like to use these, but also hit some of the bottom notes:
e-7---7-|
b-7---9-|
g-8---8-|     the picking mixes the chords so listen to it.
d-9---9-|
a-9---9-|
e-7---7-|


Pre-chorus:
Yes, even the good ones....

Gt 1
 B7                   G#m
e-----11------11h12p11----11------11h12p11-|
b---11--11--11----------12--12--12---------|
g-11------11----------13------13-----------|
d------------------------------------------|
a------------------------------------------|
e------------------------------------------|

                                         Sometimes....
  B7                  A7
e-----11------11h12p11----9-------9h11p9-11-11-9-9--11-11-9-9--11-9-|
b---11--11--11----------9---9---9--------9--9--9-9--9--9--9-9--9--9-|
g-11------11----------9-------9----------9--9--9-9--9--9--9-9--9--9-|
d-------------------------------------------------------------------|
a-------------------------------------------------------------------|
e-------------------------------------------------------------------|


Gt 2                                     Sometimes....
  D#m              C#m                   F#7
e-----6-------6-------4-------4---      -----6-------6--------------|
b---7---7---7---6---5---5---5---5-      ---5---5---5---5------------|
g-8-------8-------6-------6-------  X2  -6-------6------------------|
d---------------------------------      ----------------------------|
a---------------------------------      ----------------------------|
e---------------------------------      ----------------------------|

Chorus:
and it's a lonesome feeling...

Gt 1
  B       D#m Dm C#m E      E/C#m
e-7-7-7-x--11-10-9--0-0-0-0---------|
b-7-7-7-x--11-10-9--0-0-0-0---------|
g-8-8-8-x--11-10-9--1-1-1-1-6-6-6-6-|    listen for how the chords are played
d-9-9-9-x--13-12-11-2-2-2-2-6-6-6-6-|
a-9-9-9-x--13-12-11-2-2-2-2-4-4-4-4-|
e-7-7-7-x--11-10-9--0-0-0-0-0-0-0-0-|

                     1st ending            2nd ending
  B       D#m Dm C#m (E      Em   )       E               Em
e-7-7-7-x--11-10-9- -0-0-0-0-0-0-0-0- // -0-0-0-0-0-0-0-0-0-0-0-0-0-0-0-0-|
b-7-7-7-x--11-10-9- -0-0-0-0-0-0-0-0- // -0-0-0-0-0-0-0-0-0-0-0-0-0-0-0-0-|
g-8-8-8-x--11-10-9- -1-1-1-1-0-0-0-0- // -1-1-1-1-1-1-1-1-0-0-0-0-0-0-0-0-|
d-9-9-9-x--13-12-11 -2-2-2-2-2-2-2-2- // -2-2-2-2-2-2-2-2-2-2-2-2-2-2-2-2-|
a-9-9-9-x--13-12-11 -2-2-2-2-2-2-2-2- // -2-2-2-2-2-2-2-2-2-2-2-2-2-2-2-2-|
e-7-7-7-x--11-10-9- -0-0-0-0-0-0-0-0- // -0-0-0-0-0-0-0-0-0-0-0-0-0-0-0-0-|

Gt 2
  B             E       Em
e-7-7-7-7-------------------------|
b-7-7-7-7-7-6-5-9-9-9-9-8-8-8-8---|
g-8-8-8-8-8-7-6-9-9-9-9-9-9-9-9---|  X3
d-9-9-9-9-8-7-6-9-9-9-9-9-9-9-9---|
a-9-9-9-9-6-5-4-7-7-7-7-7-7-7-7---|
e-7-7-7-7-------------------------|

  B             E               Em  F#m   C#    D#
e-7-7-7-7---------------------------------------------|
b-7-7-7-7-7-6-5-9-9-9-9-9-9-9-9-8-8-10-10-12-12-14-14-|
g-8-8-8-8-8-7-6-9-9-9-9-9-9-9-9-----------------------|
d-9-9-9-9-8-7-6-9-9-9-9-9-9-9-9-9-9-11-11-12-12-14-14-|
a-9-9-9-9-6-5-4-7-7-7-7-7-7-7-7-7-7-9--9--10-10-12-12-|
e-7-7-7-7---------------------------------------------|

Interlude:
same as Intro

Verse 2:

Gt 1 (can be split into two guitars)
  B                               G#m             F#      E
e-----------------------------------------------------------------|
b---------------------------------------------------------0---2---|
g-------------------------------------------------1---3-----------|
d-------------4-6-4-------6---4---------------4-------------------|
a--------4/6--------------------6-4-----6-7-----------------------|
e-7-7-7-7-7-7-7-7-7-7-7-7-7-7-6-6-4-4-4-4-4-4-4-4-2-2-2-2-0-0-0-0-|

  B                                 C#            D#      C#
e-----------------------------------------------------------------|
b-4~--------------------------------------------------------------|
g-----------------------------------------------------------------|
d-----------------------------------------------------------------|
a-2-2-2-2-2-2-2-2-2-2-2-2-2-2-2-6-4-4-4-4-4-4-4-4-6-6-9-6-4-4-6-4-|
e-----------------------------------------------------------------|

Gt 2 (play on the &'s)

e--------------------------9-9-9-9-11-11-9-9-|
b--12-12-12-12-12-12-12-12-9-9-9-9-11-11-9-9-|
g--11-11-11-11-11-11-11-11-9-9-9-9-11-11-9-9-|
d--13-13-13-13-13-13-13-13-------------------|
a--------------------------------------------|
e--------------------------------------------|

         |16th notes|           (not 100% sure here)
e--------11-14-11-14---------------11-14-11---------------7-------7---|
b--12-12-12-12-12-12-12-12-12-12-12---------12-9-11-9---9---9---7---7-|
g--11-11-11----------11-11-11-11----------------------9-------8-------|
d--13-13-------------13-13-13-13--------------------------------------|
a---------------------------------------------------------------------|
e---------------------------------------------------------------------|



Pre-chorus 2:
Same, but the (Sometimes... ) part is played twice.
With the Gt 3 strumming the F#7 on the second (Sometimes...)


Chorus 2:
Same, bass and vocals just go downwards instead of up in 2nd ending


Solo: Gt 1(alex actually plays this)
Gt 3 -acoustic one- (James plays this live behind the solo)

barre chords
Gt2 D#                   E               D#              F#
Gt3 D#                   G#m             C#m             D#
 e---------------------------------------------------------------------------|
 b---------------------------------------------------------------------------|
 g---------------------------------------------------------------------------|
 d-------------------------------------------------------6-6-5-5-6-6-8-8-----|
 a-6-6-4-6-6-4-6-6-4-6-4-----------------6-6-4-4-6-6-7-7-----------------6-6-|
 e-----------------------7-6-4-4-6-6-7-7-------------------------------------|

   D#              E               D#            C#m                 C#m
   C#m             G#m             C#m           F#                  F#
 e---------------------------------------------------------------------------|
 b-----------------------------------------------------------------------2h4-|
 g-------------------------------------------------------------------3h4-----|
 d-9-9-8-8-6-6-9-9-------------------------------------------1h2-4h6---------|
 a-----------------6-6-4-4---------4-4-------------------2h4-----------------|
 e-------------------------7-6-4-6-----7-7-6-6-4-4-2-4h6---------------------|

         harmonic
 e-2h4/7-4-(7)~----|
 b-----------------|
 g-----------------|
 d-----------------|
 a-----------------|
 e-----------------|


Break:
This lonesome living...
Gt 1

e---------------|
b-12-11---------| or play harmonics
g-------9---8~--|
d---------------|
a---------------|
e---------------|

So if you need me...
                    1st ending            2nd ending
  B       D#m Dm C#m (E      Em   )       E               Em
e-7-7-7-x--11-10-9- -0-0-0-0-0-0-0-0- // -0-0-0-0-0-0-0-0-0-0-0-0-0-0-0-0-|
b-7-7-7-x--11-10-9- -0-0-0-0-0-0-0-0- // -0-0-0-0-0-0-0-0-0-0-0-0-0-0-0-0-|
g-8-8-8-x--11-10-9- -1-1-1-1-0-0-0-0- // -1-1-1-1-1-1-1-1-0-0-0-0-0-0-0-0-|
d-9-9-9-x--13-12-11 -2-2-2-2-2-2-2-2- // -2-2-2-2-2-2-2-2-2-2-2-2-2-2-2-2-|
a-9-9-9-x--13-12-11 -2-2-2-2-2-2-2-2- // -2-2-2-2-2-2-2-2-2-2-2-2-2-2-2-2-|
e-7-7-7-x--11-10-9- -0-0-0-0-0-0-0-0- // -0-0-0-0-0-0-0-0-0-0-0-0-0-0-0-0-|


Gt 2
   |    on the &'s      |
   B           Cmaj7      B             E       Em
e--7--7--7--7--4--4--4--4-7-7-7-7-----------------------|
b--7--7--7--7--4--4--4--4-7-7-7-7-7-6-5-9-9-9-9-8-8-8-8-|
g--8--8--8--8--4--4--4--4-8-8-8-8-8-7-6-9-9-9-9-9-9-9-9-|
d-------------------------9-9-9-9-8-7-6-9-9-9-9-9-9-9-9-|
a-------------------------9-9-9-9-6-5-4-7-7-7-7-7-7-7-7-|
e-------------------------7-7-7-7-----------------------|

  B             E               Em  F#m   C#    D#
e-7-7-7-7---------------------------------------------|
b-7-7-7-7-7-6-5-9-9-9-9-9-9-9-9-8-8-10-10-12-12-14-14-|
g-8-8-8-8-8-7-6-9-9-9-9-9-9-9-9-----------------------|
d-9-9-9-9-8-7-6-9-9-9-9-9-9-9-9-9-9-11-11-12-12-14-14-|
a-9-9-9-9-6-5-4-7-7-7-7-7-7-7-7-7-7-9--9--10-10-12-12-|
e-7-7-7-7---------------------------------------------|

Last chorus:
Same as 1st chorus

Outro:
Same as intro
Добавлено: 12.09.2013
Другие материалы по этой песне:
  • Аккорды и текст

Страница создана 12.09.2013
http://primanota.ru/jjamz/cleverly-disguised-chords.htm
Привет, Гость.
Предлагаем пройти революционный курс по гитаре.
Подарок от PrimaNota.Ru, забирай!