PrimaNota.ru - самый крупный в мире бесплатный архив песенных текстов, аккордов, табулатур и нот


Jj72 - Wicked Game - таба, видео

Регистрация Запомнить меня
Войти через:  Facebook Google Twitter Vk Yandex Mail.ru

Jj72 - Wicked Game - таба, видео

Печатать
Просмотров: 109
JJ72 Wicked Game
This is a chris isaak song which jj72 covered. I heard it live some time 
a go in Belfast. Anyway, i've tabbed all the jj72 songs so, u 've probably heard of 
a few of the others.......gerry
If u want any other songs e-mail me or add me to your hotmail thing:

-----------------------i_am_jj72@hotmail.com----------------------------------------

There are two acoustic guitars used on the always and forever single. I have left 
guitar 2 bits until the end, and left reference notes through the song.

Bm (224432)
A  (577655)
E  (022100)

Guitar 1 intro: (Bm, A, E)*3

Verse 1:
Bm                         A                       E   
The world was on fire and no one could save me but you.
Bm                            A                    E   
It's strange what desire will make foolish people do.
Bm                     A                     E   
I never dreamed that I'd meet somebody like you.
Bm                     A                     E   
I never dreamed that I'd love somebody like you.  No

Chrous:
Bm A                   E                 
I don't want to fall in love. (only gonna break your heart)
Bm A                   E                 
I don't want to fall in love. (This world is only gonna break your heart)
Bm       A    E    Bm        A    E                  
With you.         With you.        

Verse 2:
Bm             A           E                        
What a wicked game to play, to make me feel this way.
Bm               A        E                      
What a wicked thing to do, to make me dream of you.
Bm              A          E                        
What a wicked game to play, to make me feel this way
Bm              A         E                           
What a wicked thing to do, to make me dream of you and,

Chrous:
Bm A                   E                 
I don't want to fall in love. 
Bm A                   E                 
I don't want to fall in love. 
Bm       A    E    Bm        A    E                  
With you.         With you.   
    Bm       A          E
No. iiiiiiiiiiiiiiiiiiii
    Bm       A          E 
No. iiiiiiiiiiiiiiiiiiii
Bm       A          E
Nobody loves no one

****************************GUITAR 2*********************************************
S/= Slide

Intro=verses:
e--------------------------------------------------------------------------------
G---3-----3-----2------2-----0---------------------------------------------------
B-----4-----------2-------------1-----1---1S/2--2S/4-----------------------------
D-4-----4----2-------2----2--------2---------------------------------------------
A--------------------------------------------------------------------------------
E--------------------------------------------------------------------------------

e--------------------------------------------------------------------------------
G---3-----3-----2------2-----0---------------------------------------------------
B-----4-----------2-------------1-----1s/2s/1------------------------------------
D-4-----4----2-------2----2--------2---------------------------------------------
A--------------------------------------------------------------------------------
E--------------------------------------------------------------------------------
Note: There are minor variations in the 1st+2nd verses. Sounds very spontaneous, but to
get it completely acurate just listen to the song.

Chorus:

e---10------10---9-----9---7-------7---------------------------------------------
G----------------------------9--------9------------------------------------------
B-------11----------9-----------9--------9---------------------------------------
D--------------------------------------------------------------------------------
A--------------------------------------------------------------------------------
E--------------------------------------------------------------------------------

e----10-------10-------10-----9-------9------9-----7-----7-------7----7------7----
G-------12-------12-------------10------10-----------9------9-----------9------9--
B----------11-------11----11-------9-------9---10------9------9----9------9------9
D---------------------------------------------------------------------------------
A---------------------------------------------------------------------------------
E---------------------------------------------------------------------------------


e----10-------10-------10-----9-------9------9------7------7-------4S/5--4--------
G-------12-------12-------------10------10------------9------9--------------------
B----------11-------11----11-------9-------9---10-------9------9------------------
D---------------------------------------------------------------------------------
A---------------------------------------------------------------------------------
E---------------------------------------------------------------------------------
**********************************************************************************
Send me any pictures, tabs, corrections or info please
***************************i_am_jj72@hotmail.com**********************************
Добавлено: 31.05.2012
Вам также может быть интересно:
Другие материалы по этой песне:
  • Аккорды и текст

Страница создана 31.05.2012
http://primanota.ru/jj72/wicked-game-chords.htm
Привет, Гость.
Предлагаем пройти революционный курс по гитаре.
Подарок от PrimaNota.Ru, забирай!