PrimaNota.ru - самый крупный в мире бесплатный архив песенных текстов, аккордов, табулатур и нот


Jj72 - Improve - таба, видео

Регистрация Запомнить меня
Войти через:  Facebook Google Twitter Vk Yandex Mail.ru

Jj72 - Improve - таба, видео

Печатать
Просмотров: 147
Уроки эстрадного вокала в Санкт-Петербурге
"Improve"
JJ72

Figure 1:
---------
E-----------------|-----------------|
H-----------------|-----------------|
G-----9-------9---|-----8-------8---|
D---6---6---6---6-|---6---6---6---6-|
A-7-------7-------|-7-------7-------|
E-----------------|-----------------|

Figure 2:
---------
E-------------------------|-------------------------|
H-------------------------|-------------------------|
G-------14----------14----|-------13----------13----|
D----11----11----11----11-|----11----11----11----11-|
A-12----------12----------|-12----------12----------|
E-------------------------|-------------------------|

  Figure 1...
1.Decaying as I am
Need not some promised land
Figure 2...
I know that I am failing
Acceptance was the plan 

  Figure 1...
2.No silence in the sea 
Nothing tranquil awaits me
Figure 2...
Useless and used up
With too much using to do

  E
3.I have chosen everything
This is what makes it so bad 
      A
No matter what the action
The situation was created by me

  E
4.My life is different 
These grey streets will only get me down
A
They will never fool me
And integrate me as their clown

  E
5.Stumbling through patches
Of flowered mortality 
 A
My daze is special
You're my godess to be
Добавлено: 17.06.2012
Другие материалы по этой песне:
  • Аккорды и текст

Страница создана 15.05.2012
http://primanota.ru/jj72/improve-chords.htm
Привет, Гость.
Предлагаем пройти революционный курс по гитаре.
Подарок от PrimaNota.Ru, забирай!