PrimaNota.ru - самый крупный в мире бесплатный архив песенных текстов, аккордов, табулатур и нот


Jj Cale - Crazy Mama2 - таба, видео

Регистрация Запомнить меня
Войти через:  Facebook Google Twitter Vk Yandex Mail.ru

Jj Cale - Crazy Mama2 - таба, видео

Печатать
Просмотров: 193
Уроки эстрадного вокала в Санкт-Петербурге
Tabbed by Fredrik Koller Lund (s212@ii.uib.no)

Crazy Mama (from Naturally 1st album)

Recorded in F#
Arranged in F#


TABBED BY: Fredrik Koller Lund

Here's what JJ himself says about the song:
"This was done with an Acetone electric drummer. The rhythm
Guitar is my Harmony tuned to the key of F#. Bass was
Overdubbed by Carl Radle after the rhythm guitar and Acetone
Tracks were put down. Mac Gayden overdubbed slide wah-wah
Using a Lincoln guitar, a Japanese made Les Paul copy, and a
Maestro Boomerang pedal through a Fender Deluxe Amplifier. Mac
Played this cut with his guitar laying on his lap, steel
Guitar style. This was an idea he picked up while playing with
Weldon Myrick, a Nashville steel guitarist. It gives a cleaner
Sound."


First of all: Tune the lead guitar (electric) to open F#

Open F#:       6   5   4   3   2   1
Db  Gb  Db  Gb  Bb  Db

This is not an absolute; you may use open G if you are more
Familiar with that tuning, but then you'll have to play all
The lead stuff one fret lower than tabbed here.

Although JJ tunes to F#, the rhythm guitar can easily be
Played in normal tuning. I'm tabbing both these alternatives
Because if you play alone (one guitar only), you can play both
Rhythm and lead in open F#. I recommend using an electric guitar
For then lead, preferably slide with wah-wah pedal. Also, lay
Back in a comfortable seat for the right mood.

OK, here we go: (Gt.1 is in normal tuning Gt.2 is in F#)

F#
|---------------|-------------------|-------------------
|---------------|-------------------|-------------------
|---------------|-------------------|------------------- Rythm
|---------------|-----------4-------|-------------------  Gt.1
|-4--4---6--4---|--4--4--6-----6--4-|-------------------
|-2--2---2--2---|--2--2--2--2--2--2-|-------------------
|               |                   |
|               |                   |
|---------------|-------------------|-------------12----
|------------/12|-(12)--------------|-12------------12-12
|---------------|-------------------|----14-12(12)------ Lead
|---------------|-------------------|-------------------  Gt.2
|---------------|-------------------|-------------------
|---------------|-------------------|-------------------


|---------------------|--------------------|------------
|---------------------|--------------------|------------
|---------------------|--------------------|------------ Rythm
|------------4--------|-----------4--------|-------4----  Gt.1
|--4--4---6-----6--4--|-4--4---6-----6--4--|4-4--6---6-4
|--2--2---2--2--2--2--|-2--2---2--2--2--2--|2-2--2-2-2-2
|                     |                    |
|       Cra-zy ma-ma  | Where you been  so | long?
|---------------------|--------------------|------------
|---------------------|--------------------|------------
|---------------------|--------------------|------------ Lead
|---------------------|--------------------|------------  Gt.2
|---------------------|--------------------|------------
|---------------------|--------------------|------------


|---------------------|------------------|--------------
|---------------------|------------------|--------------
|---------------------|------------------|-------------- Rythm
|------------4--------|-----------4------|--------4-----  Gt.1
|--4--4---6-----6--4--|-4--4---6-----6--4|-4-4--6---6-4-
|--2--2---2--2--2--2--|-2--2---2--2--2--2|-2-2--2-2-2-2-
|                     |                  |
|                     |    Cra-zy ma - ma|Where you been so
|---12---12----7------|------------------|--------------
|----------12----8----|------------------|--------------
|---------------------|------------------|-------------- Lead
|---------------------|------------------|--------------  Gt.2
|---------------------|------------------|--------------
|---------------------|------------------|--------------



|------------------------|---------------|--------------
|------------------------|---------------|--------------
|------------------------|---------------|-------------- Rythm
|------------------------|---------------|--------4-----  Gt.1
|---4--4---6-----6--4----|---------------|-4-4--6---6-4-
|---2--2---2--2--2--2----|---------------|-2-2--2-2-2-2-
|                        |               |
| long?                  |      You been |hid - ing out I
|----------12------------|---------------|--------------
|-------12-----12-8-10---|-12------------|--------------
|---------------------12-|-12------------|-------------- Lead
|------------------------|---------------|--------------  Gt.2
|------------------------|---------------|--------------
|------------------------|---------------|--------------

(Continue verse with rhythm part only)

Know that's true._   Crazy mama, I sure need you._
Crazy mama, where you been so long?


CHORUS
E      B          F#
|-----------------|-------------------|-----------------
|-----------------|-------------------|-----------------
|-----------------|---1--1---4-(4)--4-|-3--3---3-(3)--3- Rythm
|-----------------|---2--2---4-(4)--4-|-4--4---4-(4)--4-  Gt.1
|-----------------|---2--2---2-(2)--2-|-4--4---4-(4)--4-
|-----------------|-------------------|-----------------
|                 |                   |
|                 |                   |
|---12------------|-------------------|-----------------
|------12-(12)----|-------------------|-----12--12--12--
|--------------12-|-------------------|---12------12--12 Lead
|-----------------|-------------------|-----------------  Gt.2
|-----------------|-------------------|-----------------
|-----------------|-------------------|-----------------



E      B          F#
|-----------------|-------------------|-----------------
|-----------------|-------------------|-----------------
|-1--1---4-(4)--4-|-3--3---3-(3)--3---|----------------- Rythm
|-2--2---4-(4)--4-|-4--4---4-(4)--4---|-----------------  Gt.1
|-2--2---2-(2)--2-|-4--4---4-(4)--4---|-----------------
|-----------------|-------------------|-----------------
|                 |                   |
|                 |                   |
|-----------------|-14-12-------------|-----------------
|-----------------|-------12-12----12-|-----------------
|-----------------|-------------14----|----------------- Lead
|-----------------|-------------------|-----------------  Gt.2
|-----------------|-------------------|-----------------
|-----------------|-------------------|-----------------




E      B          F#
|-----------------|--------------------|----------------
|-----------------|--------------------|----------------
|-1--1---4-(4)--4-|-3--3---3-(3)--3----|---------------- Rythm
|-2--2---4-(4)--4-|-4--4---4-(4)--4----|----------------  Gt.1
|-2--2---2-(2)--2-|-4--4---4-(4)--4----|----------------
|-----------------|--------------------|----------------
|                 |                    |
|                 |                    |
|-----------------|-------12-------12--|----------------
|-----------------|-10------12-10----12|----------------
|------------9/12-|----12--------12----|---------------- Lead
|-----------------|--------------------|----------------  Gt.2
|-----------------|--------------------|----------------
|-----------------|--------------------|----------------


After 2nd verse
E      B          F#                  Fade on CHORUS
|-----------------|-------------------|-----------------
|-----------------|-------------------|-----------------
|-1--1---4-(4)--4-|-3--3---3-(3)--3---|----------------- Rythm
|-2--2---4-(4)--4-|-4--4---4-(4)--4---|-----------------  Gt.1
|-2--2---2-(2)--2-|-4--4---4-(4)--4---|-----------------
|-----------------|-------------------|-----------------
|                 |                   |
|                 |       [    3    ] |
|-----------------|-------------------|-----------------
|-----------------|--12---12--12--12--|-12--12--12-----
|-----------------|-------------------|-12--12--12-15\12 Lead
|-----------------|-------------------|-----------------  Gt.2
|-----------------|-------------------|-----------------
|-----------------|-------------------|-----------------




2.verse:
Standing on the corner, looking for you babe.
Standing on the corner, looking for you babe.
Lordy, mercy, cannot see, Crazy mama. Coming after me.
Crazy mama, where you been so long



That should do it.
Here is the alternative rhythm part in open F# for playing
Both rhytm and lead parts alone:

(Open F# tuning)
|-----------------|-------------------|-----------------
|-----------------|-------------------|-----------------
|---------0-------|--------0----------|----------------- Rythm
|--0-0--2---2-0---|-0-0--2---2-0------|-----------------  Gt.1
|--0-0--0-0-0-0---|-0-0--0-0-0-0------|--etc.-----------
|-----------------|-------------------|-----------------


Hope you enjoy playing it. The lead parts may not be exactly
The same on the record so you may improvise.
Добавлено: 25.05.2012
Другие материалы по этой песне:
  • Аккорды и текст

Страница создана 25.05.2012
http://primanota.ru/jj-cale/crazy-mama2-chords.htm
Привет, Гость.
Предлагаем пройти революционный курс по гитаре.
Подарок от PrimaNota.Ru, забирай!