PrimaNota.ru - самый крупный в мире бесплатный архив песенных текстов, аккордов, табулатур и нот


JJ Cale & Eric Clapton - When This War Is Over - бас-таба, видео

Регистрация Запомнить меня
Войти через:  Facebook Google Twitter Vk Yandex Mail.ru

JJ Cale & Eric Clapton - When This War Is Over - бас-таба, видео

Печатать
Просмотров: 55
JJ Cale / Eric Clapton
When this war is over

Bass Tab 
Tempo: 92 
Key signature: E major

Intro:  Drums / 8 bars instrumental
G|-------6-|-------6-||-------6-9-6-----|-
D|---6-9---|---6-9---||---6-9-------9-6-|-
A|-7-------|-7-------||-7---------------|- x2
E|---------|---------||-----------------|-

Verse1:
G|-------6-|-------6-||-------6-9-6-----|- 
D|---6-9---|---6-9---||---6-9-------9-6-|- 
A|-7-------|-7-------||-7---------------|- 
E|---------|---------||-----------------|- 
When this war is over
It will be a better day

G|-------6-|-------6-||-------6-9-7-6---|-
D|---6-9---|---6-9---||---6-9---------9-|-
A|-7-------|-7-------||-7---------------|-
E|---------|---------||-----------------|-

G|---------|---------||-----------------|- 
D|-------4-|-------4-||-------4-7-------|- 
A|---4-7---|---4-7---||---4-7-----4-5-6-|- 
E|-5-------|-5-------||-5---------------|- 
When this war is over
It will be a better day
G|-------6-|-------6-||-------6-9-6-----|-
D|---6-9---|---6-9---||---6-9-------9-6-|-
A|-7-------|-7-------||-7---------------|-
E|---------|---------||-----------------|-

G|-----------------||-----------------|- 
D|-------6-9-6-----||-------4-7-------|- 
A|---6-9-------9-6-||---4-7-----4-5-6-|- 
E|-7---------------||-5---------------|- 
But it won't bring back
Those poor boys in their graves

G|-------6-9-6-----||-------6-9-6-----|-
D|---6-9-------9-6-||---6-9-------9-6-|-
A|-7---------------||-7---------------|-
E|-----------------||-----------------|-

Verse2: = (play like Verse 1)

Ain't no sense in no action
Killin' people all the time
Ain't no sense in no action
Killin' people all the time
When it happens on the street
We call that a crime

Bridge:
G|-------6-||-------6-9-6-----|- 
D|----9----||---6-9-------9-6-|- 
A|-7-------||-7---------------|- X4 
E|---------||-----------------|- 
Man, he can get along
He just won't agree
Who's right and who's wrong
The matter you see
All of those killings
That ain't the way to go
Gotta get a plan
And change our ways you know

Verse3: = (play like Verse 1)

When this war is over
It will be a better day
When this war is over
It will be a better day
But it won't bring back
Those poor boys in their graves

Instrumental(2) / Outro: = play V1
G|-------6-|-------6-||-------6-9-6-----|-
D|---6-9---|---6-9---||---6-9-------9-6-|-
A|-7-------|-7-------||-7---------------|-
E|---------|---------||-----------------|-

G|-------6-|-------6-||-------6-9-7-6---|-
D|---6-9---|---6-9---||---6-9---------9-|-
A|-7-------|-7-------||-7---------------|-
E|---------|---------||-----------------|-

G|---------|---------||-----------------|-
D|-------4-|-------4-||-------4-7-------|-
A|---4-7---|---4-7---||---4-7-----4-5-6-|-
E|-5-------|-5-------||-5---------------|-

G|-------6-|-------6-||-------6-9-6-----|-
D|---6-9---|---6-9---||---6-9-------9-6-|-
A|-7-------|-7-------||-7---------------|-
E|---------|---------||-----------------|-

G|-----------------||-----------------|-
D|-------6-9-6-----||-------4-7-------|-
A|---6-9-------9-6-||---4-7-----4-5-6-|-
E|-7---------------||-5---------------|-

G|-----------------||-----------------|-
D|------6-7--9r~---||-----------------|-
A|-7-7-------------||-7r~~------------|-
E|-----------------||-----------------|-

End: 03:48
Добавлено: 11.06.2016
Другие материалы по этой песне:
  • Аккорды и текст

Страница создана 11.06.2016
http://primanota.ru/jj-cale-and-eric-clapton/when-this-war-is-over-chords.htm
Привет, Гость.
Предлагаем пройти революционный курс по гитаре.
Подарок от PrimaNota.Ru, забирай!