PrimaNota.ru - самый крупный в мире бесплатный архив песенных текстов, аккордов, табулатур и нот


JJ Cale & Eric Clapton - Call Me The Breeze - бас-таба, видео

Регистрация Запомнить меня
Войти через:  Facebook Google Twitter Vk Yandex Mail.ru

JJ Cale & Eric Clapton - Call Me The Breeze - бас-таба, видео

Печатать
Просмотров: 34
JJ CALE 
Call me the breeze 

Bass Tab

Tuning: EADG
Tempo: 92 bpm 
Key: F+

Intro: 00:01 
G|-----------------------------------------|-
D|- voices / Drums / Guitar playing   -----|- 
A|-----------------------------------------|-
E|-----------------------------------------|-
            one, two... one, two, three... 

Bass starts: 00:10 
G|------------11-8----|--------------------|- 
D|----11h----------11-|----11h------8-9-10-|-
A|-9g-----9g----------|-9g-----9g----------|- 
E|--------------------|--------------------|-

G|------------11-8----|--------------------|- 
D|----11h----------11-|----11h------10-9-8-|-
A|-9g-----9g----------|-9g-----9g----------|- 
E|--------------------|--------------------|-


Verse1: 00:20
G|------------11-8----|--------------------|- 
D|----11h----------11-|----11h------8-9-10-|-
A|-9g-----9g----------|-9g-----9g----------|- 
E|--------------------|--------------------|-
They call me the breeze
I keep blowing down the road

G|------------11-8----|--------------------|- 
D|----11h----------11-|----11h------10-9-8-|-
A|-9g-----9g----------|-9g-----9g----------|- 
E|--------------------|--------------------|-

G|--------------------|--------------------|- 
D|-------------9-6----|--------------------|-
A|-----9h----------9r-|-----9h------6-7-8r-|- 
E|-7g-----7g----------|-7g-----7g----------|-
They call me the breeze
I keep blowing down the road

G|------------11-8----|--------------------|- 
D|----11h----------11-|----11h-------------|-
A|-9g-----9g----------|-9g-----9g----------|- 
E|--------------------|-------------6-7-8r-|-

G|--------------------|--------------------|- 
D|--------------------|--------------------|-
A|----11h-----11-9-8r-|-----9h------6-7-8r-|- 
E|-9g-----9g----------|-7g-----7g----------|-
I ain't got me nobody
I ain't carrying me no load

G|------------11-8----|--------------------|- 
D|----11h----------11-|----11h------8-9-10-|-
A|-9g-----9g----------|-9g-----9g----------|- 
E|--------------------|--------------------|-

Verse2: 00:51
G|------------11-8----|--------------------|- 
D|----11h----------11-|----11h------8-9-10-|-
A|-9g-----9g----------|-9g-----9g----------|- 
E|--------------------|--------------------|-
Ain't no change in the weather
Ain't no change in me

G|------------11-8----|--------------------|- 
D|----11h----------11-|----11h------10-9-8-|-
A|-9g-----9g----------|-9g-----9g----------|- 
E|--------------------|--------------------|-

G|--------------------|--------------------|- 
D|-------------9-6----|--------------------|-
A|-----9h----------9r-|-----9h------6-7-8r-|- 
E|-7g-----7g----------|-7g-----7g----------|-
Ain't no change in the weather
Ain't no change in me

G|------------11-8----|--------------------|- 
D|----11h----------11-|----11h-------------|-
A|-9g-----9g----------|-9g-----9g----------|- 
E|--------------------|-------------6-7-8r-|-

G|--------------------|--------------------|- 
D|--------------------|--------------------|-
A|----11h-----11-9-8r-|-----9h------6-7-8r-|- 
E|-9g-----9g----------|-7g-----7g----------|-
I ain't hidin' from nobody
Ain't nobody hidin' from me

G|------------11-8----|--------------------|- 
D|----11h----------11-|----11h------8-9-10-|-
A|-9g-----9g----------|-9g-----9g----------|- 
E|--------------------|--------------------|-

Instrumental(1): 01:23
G|------------11-8----|--------------------|- 
D|----11h----------11-|----11h------8-9-10-|-
A|-9g-----9g----------|-9g-----9g----------|- 
E|--------------------|--------------------|-

G|------------11-8----|--------------------|- 
D|----11h----------11-|----11h------10-9-8-|-
A|-9g-----9g----------|-9g-----9g----------|- 
E|--------------------|--------------------|-

G|--------------------|--------------------|- 
D|-------------9-6----|--------------------|-
A|-----9h----------9r-|-----9h------6-7-8r-|- 
E|-7g-----7g----------|-7g-----7g----------|-

G|------------11-8----|--------------------|- 
D|----11h----------11-|----11h-------------|-
A|-9g-----9g----------|-9g-----9g----------|- 
E|--------------------|-------------6-7-8r-|-

G|--------------------|--------------------|- 
D|--------------------|--------------------|-
A|----11h-----11-9-8r-|-----9h------6-7-8r-|- 
E|-9g-----9g----------|-7g-----7g----------|-

G|------------11-8----|--------------------|- 
D|----11h----------11-|----11h------8-9-10-|-
A|-9g-----9g----------|-9g-----9g----------|- 
E|--------------------|--------------------|-

Verse3: 01:54
G|------------11-8----|--------------------|- 
D|----11h----------11-|----11h------8-9-10-|-
A|-9g-----9g----------|-9g-----9g----------|- 
E|--------------------|--------------------|-
I got that green light, babe
I got to keep moving on

G|------------11-8----|--------------------|- 
D|----11h----------11-|----11h------10-9-8-|-
A|-9g-----9g----------|-9g-----9g----------|- 
E|--------------------|--------------------|-

G|--------------------|--------------------|- 
D|-------------9-6----|--------------------|-
A|-----9h----------9r-|-----9h------6-7-8r-|- 
E|-7g-----7g----------|-7g-----7g----------|-
I got that green light, babe
I got to keep moving on

G|------------11-8----|--------------------|- 
D|----11h----------11-|----11h-------------|-
A|-9g-----9g----------|-9g-----9g----------|- 
E|--------------------|-------------6-7-8r-|-

G|--------------------|--------------------|- 
D|--------------------|--------------------|-
A|----11h-----11-9-8r-|-----9h------6-7-8r-|- 
E|-9g-----9g----------|-7g-----7g----------|-
I might go out to California
Might go down to Georgia, I don't know

G|------------11-8----|--------------------|- 
D|----11h----------11-|----11h------8-9-10-|-
A|-9g-----9g----------|-9g-----9g----------|- 
E|--------------------|--------------------|-


Outro: 02:26
G|------------11-8----|--------------------|- 
D|----11h----------11-|----11h------8-9-10-|-
A|-9g-----9g----------|-9g-----9g----------|- 
E|--------------------|--------------------|-
They call me the breeze
I keep blowing down the road

G|------------11-8----|--------------------|- 
D|----11h----------11-|----11h------10-9-8-|-
A|-9g-----9g----------|-9g-----9g----------|- 
E|--------------------|--------------------|-

G|--------------------|--------------------|- 
D|-------------9-6----|--------------------|-
A|-----9h----------9r-|-----9h------6-7-8r-|- 
E|-7g-----7g----------|-7g-----7g----------|-
They call me the breeze
I keep blowing down the road

G|------------11-8----|--------------------|- 
D|----11h----------11-|----11h-------------|-
A|-9g-----9g----------|-9g-----9g----------|- 
E|--------------------|-------------6-7-8r-|-

G|--------------------|--------------------|- 
D|--------------------|--------------------|-
A|----11h-----11-9-8r-|-----9h------6-7-8r-|- 
E|-9g-----9g----------|-7g-----7g----------|-
I ain't got me nobody
I ain't carrying me no load

G|------------11-8----|--------------------|- 
D|----11h----------11-|----11h------8-9-10-|-
A|-9g-----9g----------|-9g-----9g----------|- 
E|--------------------|--------------------|-

G|--------------------|--------------------|- 
D|----11h------8-9-10-|----11h------8-9-10-|-
A|-9g-----9g----------|-9g-----9g----------|- fading out... 
E|--------------------|--------------------|-

End: 03:06


--------------------------------------------------------------------------------
Tablature Legend ----------------  
| S  slap 
| P  pop 
| x  mute note
| .  full stop
| /  slide up 
| \  slide down
| >  link to next bar 
| h  hammer-on 
| p  pull-off 
| g  grace note 
| ~  vibrato 
| ^  brush up
Добавлено: 11.06.2016
Другие материалы по этой песне:
  • Аккорды и текст

Страница создана 11.06.2016
http://primanota.ru/jj-cale-and-eric-clapton/call-me-breeze-chords.htm
Привет, Гость.
Предлагаем пройти революционный курс по гитаре.
Подарок от PrimaNota.Ru, забирай!