PrimaNota.ru - самый крупный в мире бесплатный архив песенных текстов, аккордов, табулатур и нот


Jimmy Hunt - Marie-marthe - таба, видео

Регистрация Запомнить меня
Войти через:  Facebook Google Twitter Vk Yandex Mail.ru

Jimmy Hunt - Marie-marthe - таба, видео

Печатать
Просмотров: 140
Accords

Ebm x68876
F#  244322
Bbm 688666
Eb  x68886
Ab  466544


Ebm F# Bbm Eb Ab (x2)


      Ebm
Marie-Marthe
        F#
Vieille conne
        Bbm      Eb               Ab
Tu n'es pas plus près de Dieu que moi


      Ebm
Marie-Marthe
        F#
Vieille conne
      Bbm              Eb              Ab
Finalement je suis ton ange je pense a toi


      Ebm
Marie-Marthe
        F#
Vieille conne
      Bbm             Eb       Ab
Finalement je suis le seul qui pense à toi


            F#  Ebm Bbm
Qui pense à toi toi      (x2)


Fill (palm mute)
e|--------------------------------------------------------------------------------------|
B|--------------------------------------------------------------------------------------|
G|--------------------------------------------------------------------------------------|
D|----------------(X4)-------8---(X4)----------(X4)-----5--8--(X4)--------6---(X8)------|
A|-----------13-----------9-----------------8--------6-----------------6----------------|
E|---11--14------------9--------------6--9--------------------------8-------------------|


      Ebm
Marie-Marthe
        F#
Vieille conne
        Bbm         Eb            Ab
Tu n'es pas plus près de Dieu que moi


      Ebm
Marie-Marthe
        F#
Vieille conne
      Bbm             Eb       Ab
Finalement je suis le seul qui pense à toi


            F#  Ebm Bbm
Qui pense à toi toi      (x2)


F# Ebm Bbm (x4)


e|------------------------------------------------------------------|
B|------------------------------------------------------------------|
G|------------------------------------------------------------------|
D|------------------------------------------------------------------|
A|------------------------------------------------------------------|
E|---11--9--11----11--9--11----11--9--11----11--9--11--11s13--11--9-|
                                                                         (X2)
e|------------------------------------------------------------------|
B|------------------------------------------------------------------|
G|------------------------------------------------------------------|
D|------------------------------------------------------------------|
A|---------------------------------------------------4--------------|
E|---6--4--6------6--4--6-------6--4--6------6--4--6---6--4---------|


F# Ebm Bbm (x2)
Добавлено: 10.05.2015
Другие материалы по этой песне:
  • Аккорды и текст

Страница создана 10.05.2015
http://primanota.ru/jimmy-hunt/marie-marthe-chords.htm
Привет, Гость.
Предлагаем пройти революционный курс по гитаре.
Подарок от PrimaNota.Ru, забирай!